  0
SECTION
  2
BLOCKS
  0
BLOCK
  8
1
  2
P0001_05
 70
64
 10
0.0000
 20
0.0000
  0
TEXT
  8
1
 10
191.6396
 20
296.2813
 40
8.0000
 50
0.0000
  1
PIECE: PARTS1
  7
STANDARD
  0
TEXT
  8
1
 10
191.6396
 20
287.0812
 40
8.0000
 50
0.0000
  1
SIZE: M
  7
STANDARD
  0
TEXT
  8
1
 10
191.6396
 20
277.8812
 40
8.0000
 50
0.0000
  1
FABRIC:
  7
STANDARD
  0
TEXT
  8
1
 10
191.6396
 20
268.6812
 40
8.0000
 50
0.0000
  1
QUANTITY:
  7
STANDARD
  0
TEXT
  8
1
 10
1.7285
 20
272.4077
 40
8.0000
 50
0.0000
  1
COMMENT: 1.0
  7
STANDARD
  0
TEXT
  8
1
 10
103.6812
 20
7.8242
 40
8.0000
 50
0.0000
  1
COMMENT: 2.5/二つ折り
  7
STANDARD
  0
TEXT
  8
1
 10
103.6812
 20
69.2075
 40
8.0000
 50
0.0000
  1
COMMENT: 20mm+5mm
  7
STANDARD
  0
TEXT
  8
1
 10
103.6812
 20
62.1519
 40
8.0000
 50
0.0000
  1
COMMENT: ダブルステッチ
  7
STANDARD
  0
TEXT
  8
1
 10
125.9365
 20
395.8135
 40
11.0000
 50
0.0000
  1
COMMENT: FOP-58
  7
STANDARD
  0
TEXT
  8
1
 10
125.9365
 20
387.3467
 40
11.0000
 50
0.0000
  1
COMMENT: Size:M
  7
STANDARD
  0
TEXT
  8
1
 10
125.9365
 20
378.8799
 40
11.0000
 50
0.0000
  1
COMMENT: 後身頃
  7
STANDARD
  0
TEXT
  8
1
 10
125.9365
 20
370.4136
 40
11.0000
 50
0.0000
  1
COMMENT: (表1枚)
  7
STANDARD
  0
TEXT
  8
1
 10
230.8682
 20
625.5259
 40
8.0000
 50
0.0000
  1
COMMENT: B  C
  7
STANDARD
  0
TEXT
  8
1
 10
107.5352
 20
532.2842
 40
8.0000
 50
0.0000
  1
COMMENT: 仕上り1.5cm幅
  7
STANDARD
  0
TEXT
  8
1
 10
107.5352
 20
525.2290
 40
8.0000
 50
0.0000
  1
COMMENT: 両巻きバインダー始末
  7
STANDARD
  0
TEXT
  8
1
 10
107.5352
 20
518.1733
 40
8.0000
 50
0.0000
  1
COMMENT: コバ+5mmダブルステッチ
  7
STANDARD
  0
TEXT
  8
1
 10
140.2266
 20
631.2974
 40
8.0000
 50
0.0000
  1
COMMENT: 仕上り1.5cm幅
  7
STANDARD
  0
TEXT
  8
1
 10
140.2266
 20
624.2417
 40
8.0000
 50
0.0000
  1
COMMENT: 両巻きバインダー始末
  7
STANDARD
  0
TEXT
  8
1
 10
140.2266
 20
617.1860
 40
8.0000
 50
0.0000
  1
COMMENT: コバ+5mmダブルステッチ
  7
STANDARD
  0
TEXT
  8
1
 10
111.4424
 20
681.9829
 40
8.0000
 50
0.0000
  1
COMMENT: 1.0
  7
STANDARD
  0
POLYLINE
999
1
  8
1
 66
1
 70
0
  0
VERTEX
999
1,1,,1
  8
1
 10
0.1416
 20
0.0000
  0
VERTEX
999
1,1,,2
  8
1
 10
0.1416
 20
455.0005
  0
VERTEX
999
1,1,,3
  8
1
 10
10.1416
 20
455.0005
  0
VERTEX
999
1,2
  8
1
 10
14.4717
 20
456.0024
  0
VERTEX
999
1,2
  8
1
 10
19.1406
 20
457.4346
  0
VERTEX
999
1,2
  8
1
 10
24.0879
 20
459.3403
  0
VERTEX
999
1,2
  8
1
 10
29.2539
 20
461.7646
  0
VERTEX
999
1,2
  8
1
 10
33.2354
 20
463.9497
  0
VERTEX
999
1,2
  8
1
 10
37.2813
 20
466.4692
  0
VERTEX
999
1,2
  8
1
 10
41.3662
 20
469.3428
  0
VERTEX
999
1,2
  8
1
 10
45.4639
 20
472.5889
  0
VERTEX
999
1,2
  8
1
 10
49.5498
 20
476.2261
  0
VERTEX
999
1,2
  8
1
 10
53.5986
 20
480.2729
  0
VERTEX
999
1,2
  8
1
 10
57.5854
 20
484.7480
  0
VERTEX
999
1,2
  8
1
 10
60.8413
 20
488.8179
  0
VERTEX
999
1,2
  8
1
 10
63.3926
 20
492.3047
  0
VERTEX
999
1,2
  8
1
 10
65.8877
 20
496.0029
  0
VERTEX
999
1,2
  8
1
 10
68.3198
 20
499.9175
  0
VERTEX
999
1,2
  8
1
 10
70.6812
 20
504.0542
  0
VERTEX
999
1,2
  8
1
 10
72.9639
 20
508.4189
  0
VERTEX
999
1,2
  8
1
 10
75.1611
 20
513.0171
  0
VERTEX
999
1,2
  8
1
 10
77.2646
 20
517.8535
  0
VERTEX
999
1,2
  8
1
 10
79.2676
 20
522.9346
  0
VERTEX
999
1,2
  8
1
 10
81.1621
 20
528.2656
  0
VERTEX
999
1,2
  8
1
 10
82.9409
 20
533.8516
  0
VERTEX
999
1,2
  8
1
 10
84.5967
 20
539.6987
  0
VERTEX
999
1,1,,4
  8
1
 10
86.4814
 20
547.3833
  0
VERTEX
999
1,2
  8
1
 10
87.8115
 20
553.6631
  0
VERTEX
999
1,2
  8
1
 10
89.4766
 20
562.9326
  0
VERTEX
999
1,2
  8
1
 10
90.7720
 20
571.9976
  0
VERTEX
999
1,2
  8
1
 10
91.7275
 20
580.8315
  0
VERTEX
999
1,2
  8
1
 10
92.3730
 20
589.4072
  0
VERTEX
999
1,2
  8
1
 10
92.7388
 20
597.6992
  0
VERTEX
999
1,2
  8
1
 10
92.8428
 20
608.2661
  0
VERTEX
999
1,2
  8
1
 10
92.5732
 20
618.2173
  0
VERTEX
999
1,2
  8
1
 10
92.0020
 20
627.4893
  0
VERTEX
999
1,2
  8
1
 10
91.1992
 20
636.0190
  0
VERTEX
999
1,2
  8
1
 10
90.1089
 20
644.6489
  0
VERTEX
999
1,2
  8
1
 10
88.7832
 20
652.9331
  0
VERTEX
999
1,2
  8
1
 10
87.2222
 20
660.8926
  0
VERTEX
999
1,2
  8
1
 10
85.6641
 20
667.4951
  0
VERTEX
999
1,1,,5
  8
1
 10
84.9775
 20
670.0000
  0
VERTEX
999
1,1,,6
  8
1
 10
81.8887
 20
679.5264
  0
VERTEX
999
1,1,,7
  8
1
 10
146.2656
 20
704.2866
  0
VERTEX
999
1,1,,8
  8
1
 10
149.9775
 20
695.0000
  0
VERTEX
999
1,2
  8
1
 10
153.9180
 20
690.4849
  0
VERTEX
999
1,2
  8
1
 10
158.2070
 20
685.9741
  0
VERTEX
999
1,2
  8
1
 10
162.3906
 20
681.9712
  0
VERTEX
999
1,2
  8
1
 10
166.3853
 20
678.4976
  0
VERTEX
999
1,2
  8
1
 10
170.6553
 20
675.1377
  0
VERTEX
999
1,2
  8
1
 10
175.2163
 20
671.9248
  0
VERTEX
999
1,2
  8
1
 10
180.0840
 20
668.8911
  0
VERTEX
999
1,2
  8
1
 10
185.2729
 20
666.0703
  0
VERTEX
999
1,2
  8
1
 10
190.7998
 20
663.4941
  0
VERTEX
999
1,2
  8
1
 10
196.6792
 20
661.1968
  0
VERTEX
999
1,2
  8
1
 10
202.1255
 20
659.4404
  0
VERTEX
999
1,2
  8
1
 10
207.0259
 20
658.1416
  0
VERTEX
999
1,2
  8
1
 10
212.1475
 20
657.0479
  0
VERTEX
999
1,2
  8
1
 10
217.4971
 20
656.1729
  0
VERTEX
999
1,2
  8
1
 10
223.0806
 20
655.5303
  0
VERTEX
999
1,2
  8
1
 10
228.9053
 20
655.1348
  0
VERTEX
999
1,1,,9
  8
1
 10
234.9775
 20
655.0000
  0
VERTEX
999
1,2
  8
1
 10
240.0547
 20
655.0938
  0
VERTEX
999
1,2
  8
1
 10
245.9199
 20
655.4468
  0
VERTEX
999
1,2
  8
1
 10
251.5439
 20
656.0488
  0
VERTEX
999
1,2
  8
1
 10
256.9316
 20
656.8862
  0
VERTEX
999
1,2
  8
1
 10
262.0908
 20
657.9443
  0
VERTEX
999
1,2
  8
1
 10
267.0278
 20
659.2104
  0
VERTEX
999
1,2
  8
1
 10
272.5151
 20
660.9307
  0
VERTEX
999
1,2
  8
1
 10
278.4395
 20
663.1909
  0
VERTEX
999
1,2
  8
1
 10
284.0098
 20
665.7339
  0
VERTEX
999
1,2
  8
1
 10
289.2402
 20
668.5264
  0
VERTEX
999
1,2
  8
1
 10
294.1470
 20
671.5352
  0
VERTEX
999
1,2
  8
1
 10
298.7456
 20
674.7275
  0
VERTEX
999
1,2
  8
1
 10
303.0513
 20
678.0708
  0
VERTEX
999
1,2
  8
1
 10
307.0791
 20
681.5317
  0
VERTEX
999
1,2
  8
1
 10
310.8452
 20
685.0781
  0
VERTEX
999
1,2
  8
1
 10
315.2080
 20
689.5801
  0
VERTEX
999
1,1,,10
  8
1
 10
319.9771
 20
695.0000
  0
VERTEX
999
1,1,,11
  8
1
 10
322.8457
 20
704.6104
  0
VERTEX
999
1,1,,12
  8
1
 10
388.0659
 20
679.5264
  0
VERTEX
999
1,1,,13
  8
1
 10
384.9775
 20
670.0000
  0
VERTEX
999
1,2
  8
1
 10
384.1230
 20
666.8433
  0
VERTEX
999
1,2
  8
1
 10
382.4844
 20
659.7246
  0
VERTEX
999
1,2
  8
1
 10
380.9033
 20
651.3916
  0
VERTEX
999
1,2
  8
1
 10
379.5913
 20
642.8237
  0
VERTEX
999
1,2
  8
1
 10
378.6445
 20
634.9951
  0
VERTEX
999
1,2
  8
1
 10
377.8672
 20
626.3696
  0
VERTEX
999
1,2
  8
1
 10
377.1733
 20
612.0732
  0
VERTEX
999
1,2
  8
1
 10
377.1289
 20
601.7300
  0
VERTEX
999
1,2
  8
1
 10
377.4302
 20
592.2041
  0
VERTEX
999
1,2
  8
1
 10
377.9795
 20
583.7202
  0
VERTEX
999
1,2
  8
1
 10
378.8281
 20
574.9692
  0
VERTEX
999
1,2
  8
1
 10
380.0068
 20
565.9785
  0
VERTEX
999
1,2
  8
1
 10
381.5449
 20
556.7744
  0
VERTEX
999
1,1,,14
  8
1
 10
383.4736
 20
547.3833
  0
VERTEX
999
1,2
  8
1
 10
383.8330
 20
545.8125
  0
VERTEX
999
1,2
  8
1
 10
385.3584
 20
539.6992
  0
VERTEX
999
1,2
  8
1
 10
387.0137
 20
533.8516
  0
VERTEX
999
1,2
  8
1
 10
388.7925
 20
528.2656
  0
VERTEX
999
1,2
  8
1
 10
390.6875
 20
522.9346
  0
VERTEX
999
1,2
  8
1
 10
392.6899
 20
517.8535
  0
VERTEX
999
1,2
  8
1
 10
394.7939
 20
513.0171
  0
VERTEX
999
1,2
  8
1
 10
396.9907
 20
508.4189
  0
VERTEX
999
1,2
  8
1
 10
399.2734
 20
504.0542
  0
VERTEX
999
1,2
  8
1
 10
401.6348
 20
499.9175
  0
VERTEX
999
1,2
  8
1
 10
404.0669
 20
496.0029
  0
VERTEX
999
1,2
  8
1
 10
406.5625
 20
492.3047
  0
VERTEX
999
1,2
  8
1
 10
409.1133
 20
488.8179
  0
VERTEX
999
1,2
  8
1
 10
411.7129
 20
485.5371
  0
VERTEX
999
1,2
  8
1
 10
415.6865
 20
480.9883
  0
VERTEX
999
1,2
  8
1
 10
419.7266
 20
476.8716
  0
VERTEX
999
1,2
  8
1
 10
423.8086
 20
473.1675
  0
VERTEX
999
1,2
  8
1
 10
427.9063
 20
469.8579
  0
VERTEX
999
1,2
  8
1
 10
431.9946
 20
466.9233
  0
VERTEX
999
1,2
  8
1
 10
436.0488
 20
464.3457
  0
VERTEX
999
1,2
  8
1
 10
440.0430
 20
462.1064
  0
VERTEX
999
1,2
  8
1
 10
445.2319
 20
459.6143
  0
VERTEX
999
1,2
  8
1
 10
450.2100
 20
457.6460
  0
VERTEX
999
1,2
  8
1
 10
454.9170
 20
456.1572
  0
VERTEX
999
1,1,,15
  8
1
 10
459.8135
 20
455.0005
  0
VERTEX
999
1,1,,16
  8
1
 10
469.8135
 20
455.0005
  0
VERTEX
999
1,1,,17
  8
1
 10
469.8130
 20
0.0000
  0
VERTEX
999
1,1,,18
  8
1
 10
244.9775
 20
0.0000
  0
VERTEX
999
1,1,,19
  8
1
 10
234.9775
 20
0.0000
  0
VERTEX
999
1,1,,20
  8
1
 10
224.9775
 20
0.0000
  0
VERTEX
999
1,1,,21
  8
1
 10
0.1416
 20
0.0000
  0
SEQEND
  0
LINE
999
5,1,,22
  8
1
 10
459.8130
 20
25.0000
 11
459.8135
 21
455.0005
  0
LINE
999
5,1,,24
  8
1
 10
10.1416
 20
455.0005
 11
10.1421
 21
25.0000
  0
LINE
999
5,1,,26
  8
1
 10
149.9775
 20
695.0000
 11
84.9775
 21
670.0000
  0
LINE
999
5,1,,28
  8
1
 10
234.9775
 20
0.0000
 11
234.9775
 21
655.0000
  0
LINE
999
5,1,,30
  8
1
 10
384.9775
 20
670.0000
 11
319.9771
 21
695.0000
  0
LINE
999
5,1,,32
  8
1
 10
0.2070
 20
25.0000
 11
234.9775
 21
25.0000
  0
LINE
999
5,1,,34
  8
1
 10
234.9775
 20
25.0000
 11
470.0835
 21
25.0000
  0
LINE
999
5,1,,36
  8
1
  6
1
 10
10.1421
 20
45.0000
 11
234.9775
 21
45.0000
  0
LINE
999
5,1,,38
  8
1
  6
1
 10
10.1421
 20
50.0000
 11
234.9775
 21
50.0000
  0
LINE
999
5,1,,40
  8
1
 10
11.7153
 20
446.6470
 11
11.7822
 21
446.6597
  0
LINE
999
5,1,,42
  8
1
 10
9.9404
 20
446.3315
 11
11.7153
 21
446.6470
  0
LINE
999
5,1,,44
  8
1
 10
93.1719
 20
672.2612
 11
93.0479
 21
672.6680
  0
LINE
999
5,1,,46
  8
1
 10
12.6392
 20
441.7329
 11
12.7153
 21
441.7476
  0
LINE
999
5,1,,48
  8
1
 10
97.9658
 20
673.6821
 11
97.8159
 21
674.1738
  0
LINE
999
5,1,,50
  8
1
 10
12.9941
 20
440.2739
 11
12.9160
 21
440.2593
  0
LINE
999
5,1,,52
  8
1
 10
99.2505
 20
674.6123
 11
99.3882
 21
674.1626
  0
LINE
999
5,1,,54
  8
1
 10
10.7900
 20
455.0005
 11
460.5596
 21
455.0005
  0
LINE
999
5,1,,56
  8
1
 10
111.5215
 20
47.7969
 11
112.5796
 21
54.8521
  0
LINE
999
5,1,,58
  8
1
 10
118.2241
 20
63.3188
 11
111.5215
 21
47.7969
  0
LINE
999
5,1,,60
  8
1
 10
218.8613
 20
220.2485
 11
234.7358
 21
181.0918
  0
LINE
999
5,1,,62
  8
1
 10
234.7358
 20
398.0396
 11
250.6104
 21
358.8833
  0
LINE
999
5,1,,64
  8
1
 10
143.3164
 20
689.7324
 11
143.4883
 21
689.5234
  0
LINE
999
5,1,,66
  8
1
 10
141.6606
 20
691.8086
 11
143.3164
 21
689.7324
  0
LINE
999
5,1,,68
  8
1
 10
139.4336
 20
686.5815
 11
139.6421
 21
686.3286
  0
LINE
999
5,1,,70
  8
1
 10
136.7295
 20
689.9824
 11
139.4336
 21
686.5815
  0
LINE
999
5,1,,72
  8
1
 10
138.4819
 20
685.3770
 11
138.2637
 21
685.6436
  0
LINE
999
5,1,,74
  8
1
 10
331.4727
 20
685.3770
 11
331.6914
 21
685.6436
  0
LINE
999
5,1,,76
  8
1
 10
103.7607
 20
558.1484
 11
112.4629
 21
554.6211
  0
LINE
999
5,1,,78
  8
1
 10
121.8696
 20
540.5098
 11
103.7607
 21
558.1484
  0
LINE
999
5,1,,80
  8
1
 10
169.3774
 20
657.8672
 11
163.4976
 21
653.6338
  0
LINE
999
5,1,,82
  8
1
 10
157.1475
 20
639.5229
 11
169.3774
 21
657.8672
  0
LINE
999
5,1,,84
  8
1
 10
456.9604
 20
440.2739
 11
457.0386
 21
440.2593
  0
LINE
999
5,1,,86
  8
1
 10
370.7041
 20
674.6123
 11
370.5664
 21
674.1626
  0
POLYLINE
999
5
  8
1
  6
1
 66
1
 70
0
  0
VERTEX
999
5,1,,88
  8
1
 10
11.7822
 20
446.6597
  0
VERTEX
999
5,2
  8
1
 10
16.7080
 20
447.8047
  0
VERTEX
999
5,2
  8
1
 10
21.4468
 20
449.2456
  0
VERTEX
999
5,2
  8
1
 10
26.0825
 20
450.9702
  0
VERTEX
999
5,2
  8
1
 10
30.7295
 20
453.0161
  0
VERTEX
999
5,2
  8
1
 10
35.2598
 20
455.3301
  0
VERTEX
999
5,2
  8
1
 10
39.9746
 20
458.0928
  0
VERTEX
999
5,2
  8
1
 10
44.8281
 20
461.3438
  0
VERTEX
999
5,2
  8
1
 10
48.9463
 20
464.4546
  0
VERTEX
999
5,2
  8
1
 10
53.1025
 20
467.9551
  0
VERTEX
999
5,1,,89
  8
1
 10
56.8535
 20
471.4570
  0
SEQEND
  0
POLYLINE
999
5
  8
1
  6
1
 66
1
 70
0
  0
VERTEX
999
5,1,,90
  8
1
 10
56.8535
 20
471.4570
  0
VERTEX
999
5,2
  8
1
 10
61.3989
 20
476.1860
  0
VERTEX
999
5,2
  8
1
 10
65.3247
 20
480.7588
  0
VERTEX
999
5,2
  8
1
 10
69.0537
 20
485.5913
  0
VERTEX
999
5,2
  8
1
 10
72.5835
 20
490.6812
  0
VERTEX
999
5,2
  8
1
 10
75.9141
 20
496.0259
  0
VERTEX
999
5,2
  8
1
 10
79.0449
 20
501.6240
  0
VERTEX
999
5,2
  8
1
 10
81.9736
 20
507.4731
  0
VERTEX
999
5,2
  8
1
 10
84.7002
 20
513.5723
  0
VERTEX
999
5,2
  8
1
 10
87.2236
 20
519.9180
  0
VERTEX
999
5,2
  8
1
 10
89.5420
 20
526.5098
  0
VERTEX
999
5,2
  8
1
 10
91.6558
 20
533.3442
  0
VERTEX
999
5,2
  8
1
 10
93.9189
 20
541.8643
  0
VERTEX
999
5,1,,91
  8
1
 10
94.7739
 20
545.5166
  0
SEQEND
  0
POLYLINE
999
5
  8
1
  6
1
 66
1
 70
0
  0
VERTEX
999
5,1,,92
  8
1
 10
94.7739
 20
545.5166
  0
VERTEX
999
5,2
  8
1
 10
96.6777
 20
554.7393
  0
VERTEX
999
5,2
  8
1
 10
98.2173
 20
563.7852
  0
VERTEX
999
5,2
  8
1
 10
99.4189
 20
572.6309
  0
VERTEX
999
5,2
  8
1
 10
100.3096
 20
581.2544
  0
VERTEX
999
5,2
  8
1
 10
100.9146
 20
589.6328
  0
VERTEX
999
5,2
  8
1
 10
101.3232
 20
600.3838
  0
VERTEX
999
5,2
  8
1
 10
101.3340
 20
610.6055
  0
VERTEX
999
5,2
  8
1
 10
100.7397
 20
624.8291
  0
VERTEX
999
5,2
  8
1
 10
100.0278
 20
633.4937
  0
VERTEX
999
5,2
  8
1
 10
99.1367
 20
641.4414
  0
VERTEX
999
5,2
  8
1
 10
97.8643
 20
650.2871
  0
VERTEX
999
5,2
  8
1
 10
96.2666
 20
659.1660
  0
VERTEX
999
5,2
  8
1
 10
94.5713
 20
666.9033
  0
VERTEX
999
5,1,,93
  8
1
 10
93.1719
 20
672.2612
  0
SEQEND
  0
POLYLINE
999
5
  8
1
  6
1
 66
1
 70
0
  0
VERTEX
999
5,1,,94
  8
1
 10
12.7153
 20
441.7476
  0
VERTEX
999
5,2
  8
1
 10
17.6499
 20
442.8828
  0
VERTEX
999
5,2
  8
1
 10
22.6284
 20
444.3721
  0
VERTEX
999
5,2
  8
1
 10
27.5049
 20
446.1577
  0
VERTEX
999
5,2
  8
1
 10
32.0098
 20
448.0991
  0
VERTEX
999
5,2
  8
1
 10
36.7627
 20
450.4644
  0
VERTEX
999
5,2
  8
1
 10
41.7153
 20
453.2939
  0
VERTEX
999
5,2
  8
1
 10
46.3887
 20
456.3315
  0
VERTEX
999
5,2
  8
1
 10
50.7153
 20
459.4893
  0
VERTEX
999
5,2
  8
1
 10
55.0869
 20
463.0493
  0
VERTEX
999
5,2
  8
1
 10
59.4761
 20
467.0356
  0
VERTEX
999
5,1,,95
  8
1
 10
60.3535
 20
467.8862
  0
SEQEND
  0
POLYLINE
999
5
  8
1
  6
1
 66
1
 70
0
  0
VERTEX
999
5,1,,96
  8
1
 10
60.3535
 20
467.8862
  0
VERTEX
999
5,2
  8
1
 10
64.6548
 20
472.3350
  0
VERTEX
999
5,2
  8
1
 10
68.7515
 20
477.0508
  0
VERTEX
999
5,2
  8
1
 10
72.6421
 20
482.0313
  0
VERTEX
999
5,2
  8
1
 10
76.3257
 20
487.2744
  0
VERTEX
999
5,2
  8
1
 10
79.8008
 20
492.7778
  0
VERTEX
999
5,2
  8
1
 10
83.0674
 20
498.5400
  0
VERTEX
999
5,2
  8
1
 10
86.1235
 20
504.5586
  0
VERTEX
999
5,2
  8
1
 10
88.9688
 20
510.8315
  0
VERTEX
999
5,2
  8
1
 10
91.6016
 20
517.3564
  0
VERTEX
999
5,2
  8
1
 10
94.0210
 20
524.1323
  0
VERTEX
999
5,2
  8
1
 10
96.2261
 20
531.1563
  0
VERTEX
999
5,2
  8
1
 10
98.2158
 20
538.4263
  0
VERTEX
999
5,1,,97
  8
1
 10
99.6519
 20
544.4180
  0
SEQEND
  0
POLYLINE
999
5
  8
1
 66
1
 70
0
  0
VERTEX
999
5,1,,98
  8
1
 10
9.9014
 20
441.2539
  0
VERTEX
999
5,1,,99
  8
1
 10
12.6392
 20
441.7329
  0
SEQEND
  0
POLYLINE
999
5
  8
1
  6
1
 66
1
 70
0
  0
VERTEX
999
5,1,,100
  8
1
 10
99.6519
 20
544.4180
  0
VERTEX
999
5,2
  8
1
 10
101.5933
 20
553.8271
  0
VERTEX
999
5,2
  8
1
 10
103.1621
 20
563.0571
  0
VERTEX
999
5,2
  8
1
 10
104.3857
 20
572.0840
  0
VERTEX
999
5,2
  8
1
 10
105.2905
 20
580.8853
  0
VERTEX
999
5,2
  8
1
 10
105.9038
 20
589.4365
  0
VERTEX
999
5,2
  8
1
 10
106.2861
 20
599.0674
  0
VERTEX
999
5,2
  8
1
 10
106.3379
 20
609.5723
  0
VERTEX
999
5,2
  8
1
 10
105.4521
 20
628.7632
  0
VERTEX
999
5,2
  8
1
 10
104.6431
 20
637.3384
  0
VERTEX
999
5,2
  8
1
 10
103.5464
 20
646.0815
  0
VERTEX
999
5,2
  8
1
 10
102.2026
 20
654.5820
  0
VERTEX
999
5,2
  8
1
 10
100.5864
 20
662.9487
  0
VERTEX
999
5,2
  8
1
 10
98.8726
 20
670.3232
  0
VERTEX
999
5,1,,101
  8
1
 10
97.9653
 20
673.6821
  0
SEQEND
  0
POLYLINE
999
5
  8
1
 66
1
 70
0
  0
VERTEX
999
5,1,,102
  8
1
 10
12.9160
 20
440.2593
  0
VERTEX
999
5,2
  8
1
 10
4.7275
 20
438.9336
  0
VERTEX
999
5,1,,103
  8
1
 10
0.0000
 20
438.3008
  0
SEQEND
  0
POLYLINE
999
5
  8
1
 66
1
 70
0
  0
VERTEX
999
5,1,,104
  8
1
 10
61.4033
 20
466.8149
  0
VERTEX
999
5,2
  8
1
 10
56.9482
 20
462.6797
  0
VERTEX
999
5,2
  8
1
 10
52.5039
 20
458.9819
  0
VERTEX
999
5,2
  8
1
 10
48.0986
 20
455.6968
  0
VERTEX
999
5,2
  8
1
 10
43.3320
 20
452.5308
  0
VERTEX
999
5,2
  8
1
 10
38.2710
 20
449.5747
  0
VERTEX
999
5,2
  8
1
 10
33.4033
 20
447.0972
  0
VERTEX
999
5,2
  8
1
 10
28.7788
 20
445.0566
  0
VERTEX
999
5,2
  8
1
 10
24.1011
 20
443.2896
  0
VERTEX
999
5,2
  8
1
 10
18.9092
 20
441.6704
  0
VERTEX
999
5,2
  8
1
 10
14.2007
 20
440.5186
  0
VERTEX
999
5,1,,105
  8
1
 10
12.9941
 20
440.2739
  0
SEQEND
  0
POLYLINE
999
5
  8
1
 66
1
 70
0
  0
VERTEX
999
5,1,,106
  8
1
 10
101.1152
 20
544.0889
  0
VERTEX
999
5,2
  8
1
 10
99.0869
 20
535.8169
  0
VERTEX
999
5,2
  8
1
 10
97.0127
 20
528.5557
  0
VERTEX
999
5,2
  8
1
 10
94.7212
 20
521.5425
  0
VERTEX
999
5,2
  8
1
 10
92.2129
 20
514.7793
  0
VERTEX
999
5,2
  8
1
 10
89.4883
 20
508.2690
  0
VERTEX
999
5,2
  8
1
 10
86.5498
 20
502.0132
  0
VERTEX
999
5,2
  8
1
 10
83.3975
 20
496.0132
  0
VERTEX
999
5,2
  8
1
 10
80.0327
 20
490.2725
  0
VERTEX
999
5,2
  8
1
 10
76.4565
 20
484.7920
  0
VERTEX
999
5,2
  8
1
 10
72.6699
 20
479.5742
  0
VERTEX
999
5,2
  8
1
 10
68.6738
 20
474.6216
  0
VERTEX
999
5,2
  8
1
 10
64.8994
 20
470.3916
  0
VERTEX
999
5,1,,107
  8
1
 10
61.4033
 20
466.8149
  0
SEQEND
  0
POLYLINE
999
5
  8
1
 66
1
 70
0
  0
VERTEX
999
5,1,,108
  8
1
 10
99.3882
 20
674.1626
  0
VERTEX
999
5,2
  8
1
 10
101.0562
 20
667.7510
  0
VERTEX
999
5,2
  8
1
 10
102.7373
 20
659.9854
  0
VERTEX
999
5,2
  8
1
 10
104.2881
 20
651.3247
  0
VERTEX
999
5,2
  8
1
 10
105.5054
 20
642.9312
  0
VERTEX
999
5,2
  8
1
 10
106.4609
 20
634.5586
  0
VERTEX
999
5,2
  8
1
 10
107.2217
 20
625.3911
  0
VERTEX
999
5,2
  8
1
 10
107.7178
 20
615.4902
  0
VERTEX
999
5,2
  8
1
 10
107.8765
 20
604.9160
  0
VERTEX
999
5,2
  8
1
 10
107.6826
 20
595.1602
  0
VERTEX
999
5,2
  8
1
 10
107.2314
 20
586.4556
  0
VERTEX
999
5,2
  8
1
 10
106.4854
 20
577.4629
  0
VERTEX
999
5,2
  8
1
 10
105.4141
 20
568.2075
  0
VERTEX
999
5,2
  8
1
 10
103.9878
 20
558.7148
  0
VERTEX
999
5,2
  8
1
 10
102.5054
 20
550.6426
  0
VERTEX
999
5,1,,109
  8
1
 10
101.1152
 20
544.0889
  0
SEQEND
  0
POLYLINE
999
5
  8
1
 66
1
 70
0
  0
VERTEX
999
5,1,,110
  8
1
 10
95.2134
 20
685.0342
  0
VERTEX
999
5,2
  8
1
 10
98.1973
 20
677.5957
  0
VERTEX
999
5,1,,111
  8
1
 10
99.2505
 20
674.6123
  0
SEQEND
  0
POLYLINE
999
5
  8
1
  6
1
 66
1
 70
0
  0
VERTEX
999
5,1,,112
  8
1
 10
177.8662
 20
660.3838
  0
VERTEX
999
5,2
  8
1
 10
183.4131
 20
657.5244
  0
VERTEX
999
5,2
  8
1
 10
188.3130
 20
655.3330
  0
VERTEX
999
5,2
  8
1
 10
193.3433
 20
653.3833
  0
VERTEX
999
5,2
  8
1
 10
198.5020
 20
651.6748
  0
VERTEX
999
5,2
  8
1
 10
203.7861
 20
650.2080
  0
VERTEX
999
5,2
  8
1
 10
209.1934
 20
648.9844
  0
VERTEX
999
5,2
  8
1
 10
214.7212
 20
648.0044
  0
VERTEX
999
5,2
  8
1
 10
220.3662
 20
647.2686
  0
VERTEX
999
5,2
  8
1
 10
226.1270
 20
646.7769
  0
VERTEX
999
5,2
  8
1
 10
231.9995
 20
646.5308
  0
VERTEX
999
5,1,,113
  8
1
 10
234.9775
 20
646.5000
  0
SEQEND
  0
POLYLINE
999
5
  8
1
  6
1
 66
1
 70
0
  0
VERTEX
999
5,1,,114
  8
1
 10
143.4883
 20
689.5234
  0
VERTEX
999
5,2
  8
1
 10
148.5352
 20
683.7993
  0
VERTEX
999
5,2
  8
1
 10
153.1611
 20
679.0347
  0
VERTEX
999
5,2
  8
1
 10
157.8779
 20
674.6270
  0
VERTEX
999
5,2
  8
1
 10
162.1553
 20
671.0010
  0
VERTEX
999
5,2
  8
1
 10
166.5205
 20
667.6440
  0
VERTEX
999
5,2
  8
1
 10
170.9810
 20
664.5488
  0
VERTEX
999
5,2
  8
1
 10
175.5439
 20
661.7100
  0
VERTEX
999
5,1,,115
  8
1
 10
177.8662
 20
660.3838
  0
SEQEND
  0
POLYLINE
999
5
  8
1
  6
1
 66
1
 70
0
  0
VERTEX
999
5,1,,116
  8
1
 10
175.4429
 20
656.0107
  0
VERTEX
999
5,2
  8
1
 10
181.2383
 20
653.0220
  0
VERTEX
999
5,2
  8
1
 10
186.3545
 20
650.7319
  0
VERTEX
999
5,2
  8
1
 10
191.6045
 20
648.6938
  0
VERTEX
999
5,2
  8
1
 10
196.9863
 20
646.9082
  0
VERTEX
999
5,2
  8
1
 10
202.4961
 20
645.3755
  0
VERTEX
999
5,2
  8
1
 10
208.1323
 20
644.0967
  0
VERTEX
999
5,2
  8
1
 10
213.8911
 20
643.0723
  0
VERTEX
999
5,2
  8
1
 10
219.7705
 20
642.3027
  0
VERTEX
999
5,2
  8
1
 10
225.7676
 20
641.7891
  0
VERTEX
999
5,2
  8
1
 10
231.8794
 20
641.5322
  0
VERTEX
999
5,1,,117
  8
1
 10
234.9775
 20
641.5000
  0
SEQEND
  0
POLYLINE
999
5
  8
1
  6
1
 66
1
 70
0
  0
VERTEX
999
5,1,,118
  8
1
 10
139.6421
 20
686.3286
  0
VERTEX
999
5,2
  8
1
 10
144.8823
 20
680.3848
  0
VERTEX
999
5,2
  8
1
 10
149.4214
 20
675.6992
  0
VERTEX
999
5,2
  8
1
 10
153.7734
 20
671.5898
  0
VERTEX
999
5,2
  8
1
 10
158.2114
 20
667.7642
  0
VERTEX
999
5,2
  8
1
 10
162.7432
 20
664.2168
  0
VERTEX
999
5,2
  8
1
 10
167.3750
 20
660.9409
  0
VERTEX
999
5,2
  8
1
 10
172.1162
 20
657.9302
  0
VERTEX
999
5,1,,119
  8
1
 10
175.4429
 20
656.0107
  0
SEQEND
  0
POLYLINE
999
5
  8
1
 66
1
 70
0
  0
VERTEX
999
5,1,,120
  8
1
 10
174.7158
 20
654.6987
  0
VERTEX
999
5,2
  8
1
 10
169.2339
 20
657.9429
  0
VERTEX
999
5,2
  8
1
 10
164.4834
 20
661.1069
  0
VERTEX
999
5,2
  8
1
 10
159.8403
 20
664.5410
  0
VERTEX
999
5,2
  8
1
 10
155.2969
 20
668.2524
  0
VERTEX
999
5,2
  8
1
 10
150.8447
 20
672.2480
  0
VERTEX
999
5,2
  8
1
 10
146.4761
 20
676.5342
  0
VERTEX
999
5,2
  8
1
 10
142.1826
 20
681.1172
  0
VERTEX
999
5,1,,121
  8
1
 10
138.4819
 20
685.3770
  0
SEQEND
  0
POLYLINE
999
5
  8
1
 66
1
 70
0
  0
VERTEX
999
5,1,,122
  8
1
 10
234.9775
 20
640.0000
  0
VERTEX
999
5,2
  8
1
 10
227.7080
 20
640.1772
  0
VERTEX
999
5,2
  8
1
 10
221.6016
 20
640.6113
  0
VERTEX
999
5,2
  8
1
 10
215.6123
 20
641.3037
  0
VERTEX
999
5,2
  8
1
 10
209.7432
 20
642.2559
  0
VERTEX
999
5,2
  8
1
 10
203.9971
 20
643.4653
  0
VERTEX
999
5,2
  8
1
 10
198.3770
 20
644.9321
  0
VERTEX
999
5,2
  8
1
 10
192.8848
 20
646.6553
  0
VERTEX
999
5,2
  8
1
 10
187.5244
 20
648.6348
  0
VERTEX
999
5,2
  8
1
 10
182.2979
 20
650.8696
  0
VERTEX
999
5,2
  8
1
 10
177.2085
 20
653.3584
  0
VERTEX
999
5,1,,123
  8
1
 10
174.7158
 20
654.6987
  0
SEQEND
  0
POLYLINE
999
5
  8
1
 66
1
 70
0
  0
VERTEX
999
5,1,,124
  8
1
 10
234.9775
 20
640.0000
  0
VERTEX
999
5,2
  8
1
 10
242.2466
 20
640.1777
  0
VERTEX
999
5,2
  8
1
 10
248.3530
 20
640.6113
  0
VERTEX
999
5,2
  8
1
 10
254.3423
 20
641.3042
  0
VERTEX
999
5,2
  8
1
 10
260.2114
 20
642.2559
  0
VERTEX
999
5,2
  8
1
 10
265.9575
 20
643.4653
  0
VERTEX
999
5,2
  8
1
 10
271.5781
 20
644.9321
  0
VERTEX
999
5,2
  8
1
 10
277.0698
 20
646.6553
  0
VERTEX
999
5,2
  8
1
 10
282.4307
 20
648.6348
  0
VERTEX
999
5,2
  8
1
 10
287.6567
 20
650.8696
  0
VERTEX
999
5,2
  8
1
 10
292.7461
 20
653.3589
  0
VERTEX
999
5,1,,125
  8
1
 10
295.2388
 20
654.6987
  0
SEQEND
  0
POLYLINE
999
5
  8
1
 66
1
 70
0
  0
VERTEX
999
5,1,,126
  8
1
 10
295.2393
 20
654.6987
  0
VERTEX
999
5,2
  8
1
 10
300.7212
 20
657.9429
  0
VERTEX
999
5,2
  8
1
 10
305.4717
 20
661.1069
  0
VERTEX
999
5,2
  8
1
 10
310.1143
 20
664.5410
  0
VERTEX
999
5,2
  8
1
 10
314.6582
 20
668.2524
  0
VERTEX
999
5,2
  8
1
 10
319.1104
 20
672.2480
  0
VERTEX
999
5,2
  8
1
 10
323.4785
 20
676.5342
  0
VERTEX
999
5,2
  8
1
 10
327.7720
 20
681.1172
  0
VERTEX
999
5,1,,127
  8
1
 10
331.4727
 20
685.3770
  0
SEQEND
  0
POLYLINE
999
5
  8
1
 66
1
 70
0
  0
VERTEX
999
5,1,,128
  8
1
 10
138.2637
 20
685.6436
  0
VERTEX
999
5,2
  8
1
 10
129.5269
 20
696.8359
  0
VERTEX
999
5,1,,129
  8
1
 10
128.8926
 20
697.6729
  0
SEQEND
  0
POLYLINE
999
5
  8
1
 66
1
 70
0
  0
VERTEX
999
5,1,,130
  8
1
 10
331.6914
 20
685.6436
  0
VERTEX
999
5,2
  8
1
 10
340.4282
 20
696.8359
  0
VERTEX
999
5,1,,131
  8
1
 10
341.0625
 20
697.6729
  0
SEQEND
  0
POLYLINE
999
5
  8
1
 66
1
 70
0
  0
VERTEX
999
5,1,,132
  8
1
 10
408.5513
 20
466.8149
  0
VERTEX
999
5,2
  8
1
 10
413.0063
 20
462.6797
  0
VERTEX
999
5,2
  8
1
 10
417.4512
 20
458.9819
  0
VERTEX
999
5,2
  8
1
 10
421.8564
 20
455.6968
  0
VERTEX
999
5,2
  8
1
 10
426.6230
 20
452.5308
  0
VERTEX
999
5,2
  8
1
 10
431.6836
 20
449.5747
  0
VERTEX
999
5,2
  8
1
 10
436.5513
 20
447.0972
  0
VERTEX
999
5,2
  8
1
 10
441.1758
 20
445.0566
  0
VERTEX
999
5,2
  8
1
 10
445.8535
 20
443.2896
  0
VERTEX
999
5,2
  8
1
 10
451.0454
 20
441.6704
  0
VERTEX
999
5,2
  8
1
 10
455.7539
 20
440.5186
  0
VERTEX
999
5,1,,133
  8
1
 10
456.9604
 20
440.2739
  0
SEQEND
  0
POLYLINE
999
5
  8
1
 66
1
 70
0
  0
VERTEX
999
5,1,,134
  8
1
 10
368.8398
 20
544.0889
  0
VERTEX
999
5,2
  8
1
 10
370.8682
 20
535.8169
  0
VERTEX
999
5,2
  8
1
 10
372.9419
 20
528.5557
  0
VERTEX
999
5,2
  8
1
 10
375.2334
 20
521.5425
  0
VERTEX
999
5,2
  8
1
 10
377.7422
 20
514.7793
  0
VERTEX
999
5,2
  8
1
 10
380.4663
 20
508.2690
  0
VERTEX
999
5,2
  8
1
 10
383.4048
 20
502.0132
  0
VERTEX
999
5,2
  8
1
 10
386.5571
 20
496.0137
  0
VERTEX
999
5,2
  8
1
 10
389.9219
 20
490.2725
  0
VERTEX
999
5,2
  8
1
 10
393.4980
 20
484.7920
  0
VERTEX
999
5,2
  8
1
 10
397.2847
 20
479.5742
  0
VERTEX
999
5,2
  8
1
 10
401.2808
 20
474.6216
  0
VERTEX
999
5,2
  8
1
 10
405.0552
 20
470.3916
  0
VERTEX
999
5,1,,135
  8
1
 10
408.5513
 20
466.8149
  0
SEQEND
  0
POLYLINE
999
5
  8
1
 66
1
 70
0
  0
VERTEX
999
5,1,,136
  8
1
 10
370.5664
 20
674.1626
  0
VERTEX
999
5,2
  8
1
 10
368.8984
 20
667.7510
  0
VERTEX
999
5,2
  8
1
 10
367.2173
 20
659.9854
  0
VERTEX
999
5,2
  8
1
 10
365.6670
 20
651.3242
  0
VERTEX
999
5,2
  8
1
 10
364.4492
 20
642.9312
  0
VERTEX
999
5,2
  8
1
 10
363.4941
 20
634.5586
  0
VERTEX
999
5,2
  8
1
 10
362.7329
 20
625.3911
  0
VERTEX
999
5,2
  8
1
 10
362.2373
 20
615.4902
  0
VERTEX
999
5,2
  8
1
 10
362.0781
 20
604.9160
  0
VERTEX
999
5,2
  8
1
 10
362.2720
 20
595.1602
  0
VERTEX
999
5,2
  8
1
 10
362.7231
 20
586.4556
  0
VERTEX
999
5,2
  8
1
 10
363.4692
 20
577.4629
  0
VERTEX
999
5,2
  8
1
 10
364.5405
 20
568.2075
  0
VERTEX
999
5,2
  8
1
 10
365.9673
 20
558.7153
  0
VERTEX
999
5,2
  8
1
 10
367.4497
 20
550.6426
  0
VERTEX
999
5,1,,137
  8
1
 10
368.8398
 20
544.0889
  0
SEQEND
  0
POLYLINE
999
5
  8
1
 66
1
 70
0
  0
VERTEX
999
5,1,,138
  8
1
 10
374.7412
 20
685.0342
  0
VERTEX
999
5,2
  8
1
 10
371.7578
 20
677.5957
  0
VERTEX
999
5,1,,139
  8
1
 10
370.7041
 20
674.6123
  0
SEQEND
  0
POLYLINE
999
5
  8
1
 66
1
 70
0
  0
VERTEX
999
5,1,,140
  8
1
 10
457.0386
 20
440.2593
  0
VERTEX
999
5,2
  8
1
 10
465.2275
 20
438.9336
  0
VERTEX
999
5,1,,141
  8
1
 10
469.9551
 20
438.3008
  0
SEQEND
  0
ENDBLK
  0
BLOCK
  8
1
  2
P0002_05
 70
64
 10
0.0000
 20
0.0000
  0
TEXT
  8
1
 10
191.7690
 20
296.2290
 40
8.0000
 50
0.0000
  1
PIECE: PARTS2
  7
STANDARD
  0
TEXT
  8
1
 10
191.7690
 20
287.0290
 40
8.0000
 50
0.0000
  1
SIZE: M
  7
STANDARD
  0
TEXT
  8
1
 10
191.7690
 20
277.8290
 40
8.0000
 50
0.0000
  1
FABRIC:
  7
STANDARD
  0
TEXT
  8
1
 10
191.7690
 20
268.6290
 40
8.0000
 50
0.0000
  1
QUANTITY:
  7
STANDARD
  0
TEXT
  8
1
 10
332.2280
 20
7.8242
 40
8.0000
 50
0.0000
  1
COMMENT: 2.5/二つ折り
  7
STANDARD
  0
TEXT
  8
1
 10
332.2280
 20
69.2075
 40
8.0000
 50
0.0000
  1
COMMENT: 20mm+5mm
  7
STANDARD
  0
TEXT
  8
1
 10
332.2280
 20
62.1519
 40
8.0000
 50
0.0000
  1
COMMENT: ダブルステッチ
  7
STANDARD
  0
TEXT
  8
1
 10
340.3721
 20
395.8135
 40
11.0000
 50
0.0000
  1
COMMENT: FOP-58
  7
STANDARD
  0
TEXT
  8
1
 10
340.3721
 20
387.3467
 40
11.0000
 50
0.0000
  1
COMMENT: Size:M
  7
STANDARD
  0
TEXT
  8
1
 10
340.3721
 20
378.8799
 40
11.0000
 50
0.0000
  1
COMMENT: 前身頃
  7
STANDARD
  0
TEXT
  8
1
 10
340.3721
 20
370.4136
 40
11.0000
 50
0.0000
  1
COMMENT: (表1枚)
  7
STANDARD
  0
TEXT
  8
1
 10
231.1675
 20
510.5205
 40
8.0000
 50
0.0000
  1
COMMENT: F  C
  7
STANDARD
  0
TEXT
  8
1
 10
293.0435
 20
532.2842
 40
8.0000
 50
0.0000
  1
COMMENT: 仕上り1.5cm幅
  7
STANDARD
  0
TEXT
  8
1
 10
293.0435
 20
525.2290
 40
8.0000
 50
0.0000
  1
COMMENT: 両巻きバインダー始末
  7
STANDARD
  0
TEXT
  8
1
 10
293.0435
 20
518.1733
 40
8.0000
 50
0.0000
  1
COMMENT: コバ+5mmダブルステッチ
  7
STANDARD
  0
TEXT
  8
1
 10
351.2778
 20
681.9829
 40
8.0000
 50
0.0000
  1
COMMENT: 1.0
  7
STANDARD
  0
TEXT
  8
1
 10
462.4028
 20
272.4077
 40
8.0000
 50
0.0000
  1
COMMENT: 1.0
  7
STANDARD
  0
POLYLINE
999
1
  8
1
 66
1
 70
0
  0
VERTEX
999
1,1,,1
  8
1
 10
0.2710
 20
0.0000
  0
VERTEX
999
1,1,,2
  8
1
 10
0.2710
 20
455.0005
  0
VERTEX
999
1,1,,3
  8
1
 10
10.2715
 20
455.0005
  0
VERTEX
999
1,2
  8
1
 10
10.9341
 20
455.0835
  0
VERTEX
999
1,2
  8
1
 10
18.5679
 20
456.1938
  0
VERTEX
999
1,2
  8
1
 10
24.4448
 20
457.3052
  0
VERTEX
999
1,2
  8
1
 10
30.5220
 20
458.7563
  0
VERTEX
999
1,2
  8
1
 10
36.7329
 20
460.6221
  0
VERTEX
999
1,2
  8
1
 10
41.4385
 20
462.3384
  0
VERTEX
999
1,2
  8
1
 10
46.1538
 20
464.3618
  0
VERTEX
999
1,2
  8
1
 10
50.8511
 20
466.7236
  0
VERTEX
999
1,2
  8
1
 10
54.7314
 20
468.9731
  0
VERTEX
999
1,2
  8
1
 10
57.8018
 20
470.9702
  0
VERTEX
999
1,2
  8
1
 10
63.8164
 20
475.5303
  0
VERTEX
999
1,2
  8
1
 10
66.7446
 20
478.1118
  0
VERTEX
999
1,2
  8
1
 10
69.6084
 20
480.9072
  0
VERTEX
999
1,2
  8
1
 10
72.3999
 20
483.9258
  0
VERTEX
999
1,2
  8
1
 10
75.1108
 20
487.1763
  0
VERTEX
999
1,2
  8
1
 10
77.7324
 20
490.6689
  0
VERTEX
999
1,2
  8
1
 10
80.2573
 20
494.4121
  0
VERTEX
999
1,2
  8
1
 10
82.6763
 20
498.4160
  0
VERTEX
999
1,2
  8
1
 10
84.9814
 20
502.6895
  0
VERTEX
999
1,2
  8
1
 10
87.1650
 20
507.2422
  0
VERTEX
999
1,2
  8
1
 10
89.2178
 20
512.0835
  0
VERTEX
999
1,2
  8
1
 10
91.1318
 20
517.2227
  0
VERTEX
999
1,2
  8
1
 10
92.8989
 20
522.6689
  0
VERTEX
999
1,2
  8
1
 10
94.5112
 20
528.4316
  0
VERTEX
999
1,1,,4
  8
1
 10
96.2949
 20
536.0947
  0
VERTEX
999
1,2
  8
1
 10
98.5259
 20
548.4238
  0
VERTEX
999
1,2
  8
1
 10
99.8765
 20
558.6982
  0
VERTEX
999
1,2
  8
1
 10
100.5122
 20
565.3853
  0
VERTEX
999
1,2
  8
1
 10
100.9502
 20
571.9326
  0
VERTEX
999
1,2
  8
1
 10
101.2046
 20
578.3345
  0
VERTEX
999
1,2
  8
1
 10
101.2871
 20
584.5830
  0
VERTEX
999
1,2
  8
1
 10
101.1172
 20
593.6523
  0
VERTEX
999
1,2
  8
1
 10
100.2881
 20
606.5273
  0
VERTEX
999
1,2
  8
1
 10
99.4155
 20
614.5884
  0
VERTEX
999
1,2
  8
1
 10
98.1401
 20
623.4277
  0
VERTEX
999
1,2
  8
1
 10
96.4282
 20
632.7383
  0
VERTEX
999
1,2
  8
1
 10
94.5435
 20
641.1484
  0
VERTEX
999
1,2
  8
1
 10
92.5879
 20
648.6006
  0
VERTEX
999
1,2
  8
1
 10
90.6641
 20
655.0381
  0
VERTEX
999
1,2
  8
1
 10
88.2588
 20
662.1270
  0
VERTEX
999
1,2
  8
1
 10
85.9863
 20
667.9805
  0
VERTEX
999
1,1,,5
  8
1
 10
85.1069
 20
670.0000
  0
VERTEX
999
1,1,,6
  8
1
 10
81.5317
 20
679.3394
  0
VERTEX
999
1,1,,7
  8
1
 10
146.7510
 20
704.4233
  0
VERTEX
999
1,1,,8
  8
1
 10
150.1069
 20
695.0000
  0
VERTEX
999
1,2
  8
1
 10
150.7642
 20
685.3691
  0
VERTEX
999
1,2
  8
1
 10
151.9409
 20
672.3442
  0
VERTEX
999
1,2
  8
1
 10
153.2891
 20
660.8755
  0
VERTEX
999
1,2
  8
1
 10
154.7075
 20
651.0674
  0
VERTEX
999
1,2
  8
1
 10
156.3906
 20
641.3418
  0
VERTEX
999
1,2
  8
1
 10
158.3604
 20
631.7583
  0
VERTEX
999
1,2
  8
1
 10
160.2354
 20
623.9229
  0
VERTEX
999
1,2
  8
1
 10
161.8975
 20
617.7778
  0
VERTEX
999
1,2
  8
1
 10
163.7100
 20
611.7617
  0
VERTEX
999
1,2
  8
1
 10
165.6797
 20
605.8921
  0
VERTEX
999
1,2
  8
1
 10
167.8125
 20
600.1860
  0
VERTEX
999
1,2
  8
1
 10
170.1147
 20
594.6616
  0
VERTEX
999
1,2
  8
1
 10
172.5928
 20
589.3359
  0
VERTEX
999
1,2
  8
1
 10
175.2524
 20
584.2271
  0
VERTEX
999
1,2
  8
1
 10
178.1006
 20
579.3521
  0
VERTEX
999
1,2
  8
1
 10
181.1436
 20
574.7285
  0
VERTEX
999
1,2
  8
1
 10
184.3867
 20
570.3740
  0
VERTEX
999
1,2
  8
1
 10
187.8374
 20
566.3062
  0
VERTEX
999
1,2
  8
1
 10
191.5010
 20
562.5425
  0
VERTEX
999
1,2
  8
1
 10
195.3843
 20
559.1006
  0
VERTEX
999
1,2
  8
1
 10
199.4937
 20
555.9980
  0
VERTEX
999
1,2
  8
1
 10
203.8350
 20
553.2520
  0
VERTEX
999
1,2
  8
1
 10
208.4146
 20
550.8804
  0
VERTEX
999
1,2
  8
1
 10
213.2388
 20
548.9009
  0
VERTEX
999
1,2
  8
1
 10
218.3140
 20
547.3306
  0
VERTEX
999
1,2
  8
1
 10
223.6460
 20
546.1870
  0
VERTEX
999
1,2
  8
1
 10
229.2417
 20
545.4883
  0
VERTEX
999
1,1,,9
  8
1
 10
235.1069
 20
545.2515
  0
VERTEX
999
1,2
  8
1
 10
238.0737
 20
545.3110
  0
VERTEX
999
1,2
  8
1
 10
243.8032
 20
545.7813
  0
VERTEX
999
1,2
  8
1
 10
249.2661
 20
546.7041
  0
VERTEX
999
1,2
  8
1
 10
254.4692
 20
548.0635
  0
VERTEX
999
1,2
  8
1
 10
259.4180
 20
549.8408
  0
VERTEX
999
1,2
  8
1
 10
264.1191
 20
552.0186
  0
VERTEX
999
1,2
  8
1
 10
268.5786
 20
554.5791
  0
VERTEX
999
1,2
  8
1
 10
272.8032
 20
557.5059
  0
VERTEX
999
1,2
  8
1
 10
276.7988
 20
560.7803
  0
VERTEX
999
1,2
  8
1
 10
280.5713
 20
564.3853
  0
VERTEX
999
1,2
  8
1
 10
284.1279
 20
568.3032
  0
VERTEX
999
1,2
  8
1
 10
287.4741
 20
572.5166
  0
VERTEX
999
1,2
  8
1
 10
290.6162
 20
577.0078
  0
VERTEX
999
1,2
  8
1
 10
293.5610
 20
581.7593
  0
VERTEX
999
1,2
  8
1
 10
296.3140
 20
586.7534
  0
VERTEX
999
1,2
  8
1
 10
298.8823
 20
591.9727
  0
VERTEX
999
1,2
  8
1
 10
301.2715
 20
597.4004
  0
VERTEX
999
1,2
  8
1
 10
303.4883
 20
603.0176
  0
VERTEX
999
1,2
  8
1
 10
305.5386
 20
608.8076
  0
VERTEX
999
1,2
  8
1
 10
307.4292
 20
614.7529
  0
VERTEX
999
1,2
  8
1
 10
309.1655
 20
620.8354
  0
VERTEX
999
1,2
  8
1
 10
310.7549
 20
627.0381
  0
VERTEX
999
1,2
  8
1
 10
312.8750
 20
636.5288
  0
VERTEX
999
1,2
  8
1
 10
314.6992
 20
646.1904
  0
VERTEX
999
1,2
  8
1
 10
316.2471
 20
655.9648
  0
VERTEX
999
1,2
  8
1
 10
317.7334
 20
667.4312
  0
VERTEX
999
1,2
  8
1
 10
319.0508
 20
680.5029
  0
VERTEX
999
1,1,,10
  8
1
 10
320.1064
 20
695.0000
  0
VERTEX
999
1,1,,11
  8
1
 10
323.2886
 20
704.4902
  0
VERTEX
999
1,1,,12
  8
1
 10
388.6821
 20
679.3394
  0
VERTEX
999
1,1,,13
  8
1
 10
385.1069
 20
670.0000
  0
VERTEX
999
1,2
  8
1
 10
383.5469
 20
666.3140
  0
VERTEX
999
1,2
  8
1
 10
381.1265
 20
659.7930
  0
VERTEX
999
1,2
  8
1
 10
378.5981
 20
651.9502
  0
VERTEX
999
1,2
  8
1
 10
376.6455
 20
644.9976
  0
VERTEX
999
1,2
  8
1
 10
374.7124
 20
637.0596
  0
VERTEX
999
1,2
  8
1
 10
372.9014
 20
628.1919
  0
VERTEX
999
1,2
  8
1
 10
371.4971
 20
619.7163
  0
VERTEX
999
1,2
  8
1
 10
369.3862
 20
599.4863
  0
VERTEX
999
1,2
  8
1
 10
369.0029
 20
590.6709
  0
VERTEX
999
1,2
  8
1
 10
368.9473
 20
581.4785
  0
VERTEX
999
1,2
  8
1
 10
369.1143
 20
575.1523
  0
VERTEX
999
1,2
  8
1
 10
369.4585
 20
568.6768
  0
VERTEX
999
1,2
  8
1
 10
369.9941
 20
562.0586
  0
VERTEX
999
1,2
  8
1
 10
371.6880
 20
548.4238
  0
VERTEX
999
1,1,,14
  8
1
 10
373.9185
 20
536.0947
  0
VERTEX
999
1,2
  8
1
 10
374.2544
 20
534.5205
  0
VERTEX
999
1,2
  8
1
 10
375.7026
 20
528.4316
  0
VERTEX
999
1,2
  8
1
 10
377.3145
 20
522.6689
  0
VERTEX
999
1,2
  8
1
 10
379.0820
 20
517.2227
  0
VERTEX
999
1,2
  8
1
 10
380.9961
 20
512.0835
  0
VERTEX
999
1,2
  8
1
 10
383.0488
 20
507.2422
  0
VERTEX
999
1,2
  8
1
 10
385.2319
 20
502.6895
  0
VERTEX
999
1,2
  8
1
 10
387.5376
 20
498.4160
  0
VERTEX
999
1,2
  8
1
 10
389.9565
 20
494.4121
  0
VERTEX
999
1,2
  8
1
 10
392.4814
 20
490.6689
  0
VERTEX
999
1,2
  8
1
 10
395.1030
 20
487.1763
  0
VERTEX
999
1,2
  8
1
 10
397.8140
 20
483.9258
  0
VERTEX
999
1,2
  8
1
 10
400.6055
 20
480.9072
  0
VERTEX
999
1,2
  8
1
 10
403.4692
 20
478.1118
  0
VERTEX
999
1,2
  8
1
 10
409.3809
 20
473.1528
  0
VERTEX
999
1,2
  8
1
 10
412.4116
 20
470.9702
  0
VERTEX
999
1,2
  8
1
 10
415.4819
 20
468.9731
  0
VERTEX
999
1,2
  8
1
 10
419.3623
 20
466.7236
  0
VERTEX
999
1,2
  8
1
 10
424.0596
 20
464.3618
  0
VERTEX
999
1,2
  8
1
 10
428.7749
 20
462.3384
  0
VERTEX
999
1,2
  8
1
 10
433.4810
 20
460.6221
  0
VERTEX
999
1,2
  8
1
 10
439.6914
 20
458.7563
  0
VERTEX
999
1,2
  8
1
 10
445.7686
 20
457.3052
  0
VERTEX
999
1,2
  8
1
 10
451.6460
 20
456.1938
  0
VERTEX
999
1,1,,15
  8
1
 10
459.9424
 20
455.0005
  0
VERTEX
999
1,1,,16
  8
1
 10
469.9424
 20
455.0005
  0
VERTEX
999
1,1,,17
  8
1
 10
469.9424
 20
0.0000
  0
VERTEX
999
1,1,,18
  8
1
 10
245.1069
 20
0.0000
  0
VERTEX
999
1,1,,19
  8
1
 10
225.1069
 20
0.0000
  0
VERTEX
999
1,1,,20
  8
1
 10
0.2710
 20
0.0000
  0
SEQEND
  0
LINE
999
5,1,,21
  8
1
 10
459.9424
 20
25.0000
 11
459.9424
 21
455.0005
  0
LINE
999
5,1,,23
  8
1
 10
235.1069
 20
0.3120
 11
235.1069
 21
545.2515
  0
LINE
999
5,1,,25
  8
1
 10
10.2715
 20
455.0005
 11
10.2715
 21
25.0000
  0
LINE
999
5,1,,27
  8
1
 10
150.1069
 20
695.0000
 11
85.1069
 21
670.0000
  0
LINE
999
5,1,,29
  8
1
 10
385.1069
 20
670.0000
 11
320.1064
 21
695.0000
  0
LINE
999
5,1,,31
  8
1
 10
0.1924
 20
25.0000
 11
235.1069
 21
25.0000
  0
LINE
999
5,1,,33
  8
1
 10
235.1069
 20
25.0000
 11
470.0688
 21
25.0000
  0
LINE
999
5,1,,35
  8
1
 10
11.8433
 20
440.0830
 11
12.1118
 21
440.1138
  0
LINE
999
5,1,,37
  8
1
 10
98.7876
 20
676.1509
 11
98.5879
 21
676.5771
  0
LINE
999
5,1,,39
  8
1
 10
470.3862
 20
455.0005
 11
10.7744
 21
455.0005
  0
LINE
999
5,1,,41
  8
1
 10
135.1079
 20
694.4771
 11
135.1245
 21
694.1328
  0
LINE
999
5,1,,43
  8
1
 10
335.1060
 20
694.4771
 11
335.0894
 21
694.1328
  0
LINE
999
5,1,,45
  8
1
  6
1
 10
459.9424
 20
45.0000
 11
235.1069
 21
45.0000
  0
LINE
999
5,1,,47
  8
1
  6
1
 10
459.9424
 20
50.0000
 11
235.1069
 21
50.0000
  0
LINE
999
5,1,,49
  8
1
 10
340.0684
 20
47.7969
 11
341.1265
 21
54.8521
  0
LINE
999
5,1,,51
  8
1
 10
346.7710
 20
63.3188
 11
340.0684
 21
47.7969
  0
LINE
999
5,1,,53
  8
1
 10
219.5142
 20
220.2485
 11
235.3882
 21
181.0918
  0
LINE
999
5,1,,55
  8
1
 10
458.8794
 20
446.5674
 11
459.0854
 21
446.5435
  0
LINE
999
5,1,,57
  8
1
 10
459.0854
 20
446.5435
 11
460.2671
 21
446.4238
  0
LINE
999
5,1,,59
  8
1
 10
458.2856
 20
441.6025
 11
458.5410
 21
441.5732
  0
LINE
999
5,1,,61
  8
1
 10
458.5410
 20
441.5732
 11
460.0054
 21
441.4253
  0
LINE
999
5,1,,63
  8
1
 10
458.3701
 20
440.0830
 11
458.1016
 21
440.1138
  0
LINE
999
5,1,,65
  8
1
 10
371.4263
 20
676.1509
 11
371.6255
 21
676.5771
  0
LINE
999
5,1,,67
  8
1
 10
235.3882
 20
398.0396
 11
251.2627
 21
358.8833
  0
LINE
999
5,1,,69
  8
1
 10
295.2656
 20
562.8525
 11
302.3208
 21
557.2080
  0
LINE
999
5,1,,71
  8
1
 10
308.3184
 20
541.3330
 11
295.2656
 21
562.8525
  0
LINE
999
5,1,,73
  8
1
 10
356.2959
 20
558.2661
 11
347.4766
 21
554.3857
  0
LINE
999
5,1,,75
  8
1
 10
330.5430
 20
535.3354
 11
356.2959
 21
558.2661
  0
POLYLINE
999
5
  8
1
 66
1
 70
0
  0
VERTEX
999
5,1,,77
  8
1
 10
12.1118
 20
440.1138
  0
VERTEX
999
5,2
  8
1
 10
21.0176
 20
441.3975
  0
VERTEX
999
5,2
  8
1
 10
27.6372
 20
442.6519
  0
VERTEX
999
5,2
  8
1
 10
34.0830
 20
444.1855
  0
VERTEX
999
5,2
  8
1
 10
39.3647
 20
445.7095
  0
VERTEX
999
5,2
  8
1
 10
44.7231
 20
447.5371
  0
VERTEX
999
5,2
  8
1
 10
50.1270
 20
449.7046
  0
VERTEX
999
5,2
  8
1
 10
55.5449
 20
452.2476
  0
VERTEX
999
5,2
  8
1
 10
60.0474
 20
454.6802
  0
VERTEX
999
5,2
  8
1
 10
64.5195
 20
457.4199
  0
VERTEX
999
5,1,,78
  8
1
 10
67.1807
 20
459.2197
  0
SEQEND
  0
POLYLINE
999
5
  8
1
 66
1
 70
0
  0
VERTEX
999
5,1,,79
  8
1
 10
67.1807
 20
459.2197
  0
VERTEX
999
5,2
  8
1
 10
71.7305
 20
462.6279
  0
VERTEX
999
5,2
  8
1
 10
75.5913
 20
465.8887
  0
VERTEX
999
5,2
  8
1
 10
79.2783
 20
469.3662
  0
VERTEX
999
5,2
  8
1
 10
82.7915
 20
473.0591
  0
VERTEX
999
5,2
  8
1
 10
86.1294
 20
476.9663
  0
VERTEX
999
5,2
  8
1
 10
89.2925
 20
481.0874
  0
VERTEX
999
5,2
  8
1
 10
92.2793
 20
485.4209
  0
VERTEX
999
5,2
  8
1
 10
95.0894
 20
489.9658
  0
VERTEX
999
5,2
  8
1
 10
97.7222
 20
494.7217
  0
VERTEX
999
5,2
  8
1
 10
100.1772
 20
499.6870
  0
VERTEX
999
5,2
  8
1
 10
102.4546
 20
504.8608
  0
VERTEX
999
5,2
  8
1
 10
104.5522
 20
510.2417
  0
VERTEX
999
5,2
  8
1
 10
106.4707
 20
515.8296
  0
VERTEX
999
5,2
  8
1
 10
108.2085
 20
521.6230
  0
VERTEX
999
5,2
  8
1
 10
109.7661
 20
527.6201
  0
VERTEX
999
5,1,,80
  8
1
 10
110.9795
 20
533.0352
  0
SEQEND
  0
POLYLINE
999
5
  8
1
 66
1
 70
0
  0
VERTEX
999
5,1,,81
  8
1
 10
0.0000
 20
439.0322
  0
VERTEX
999
5,1,,82
  8
1
 10
11.8433
 20
440.0830
  0
SEQEND
  0
POLYLINE
999
5
  8
1
 66
1
 70
0
  0
VERTEX
999
5,1,,83
  8
1
 10
110.9795
 20
533.0352
  0
VERTEX
999
5,2
  8
1
 10
112.6372
 20
541.7461
  0
VERTEX
999
5,2
  8
1
 10
113.8208
 20
549.3047
  0
VERTEX
999
5,2
  8
1
 10
114.7500
 20
556.6826
  0
VERTEX
999
5,2
  8
1
 10
115.5781
 20
565.6455
  0
VERTEX
999
5,2
  8
1
 10
116.0674
 20
574.3076
  0
VERTEX
999
5,2
  8
1
 10
116.2368
 20
586.7163
  0
VERTEX
999
5,2
  8
1
 10
115.9502
 20
596.1172
  0
VERTEX
999
5,2
  8
1
 10
115.3496
 20
605.0298
  0
VERTEX
999
5,2
  8
1
 10
114.4922
 20
613.4370
  0
VERTEX
999
5,2
  8
1
 10
113.3384
 20
621.9531
  0
VERTEX
999
5,2
  8
1
 10
111.7012
 20
631.5557
  0
VERTEX
999
5,1,,84
  8
1
 10
111.3779
 20
633.2451
  0
SEQEND
  0
POLYLINE
999
5
  8
1
 66
1
 70
0
  0
VERTEX
999
5,1,,85
  8
1
 10
111.3779
 20
633.2451
  0
VERTEX
999
5,2
  8
1
 10
109.3979
 20
642.5190
  0
VERTEX
999
5,2
  8
1
 10
107.3208
 20
650.8125
  0
VERTEX
999
5,2
  8
1
 10
105.0010
 20
658.8857
  0
VERTEX
999
5,2
  8
1
 10
102.4023
 20
666.8081
  0
VERTEX
999
5,2
  8
1
 10
99.8867
 20
673.5313
  0
VERTEX
999
5,1,,86
  8
1
 10
98.7876
 20
676.1509
  0
SEQEND
  0
POLYLINE
999
5
  8
1
 66
1
 70
0
  0
VERTEX
999
5,1,,87
  8
1
 10
98.5879
 20
676.5771
  0
VERTEX
999
5,2
  8
1
 10
97.2671
 20
679.1514
  0
VERTEX
999
5,1,,88
  8
1
 10
94.3975
 20
684.3511
  0
SEQEND
  0
POLYLINE
999
5
  8
1
 66
1
 70
0
  0
VERTEX
999
5,1,,89
  8
1
 10
185.8726
 20
547.5049
  0
VERTEX
999
5,2
  8
1
 10
190.2065
 20
544.1914
  0
VERTEX
999
5,2
  8
1
 10
194.3481
 20
541.4438
  0
VERTEX
999
5,2
  8
1
 10
198.6216
 20
538.9956
  0
VERTEX
999
5,2
  8
1
 10
203.0259
 20
536.8472
  0
VERTEX
999
5,2
  8
1
 10
209.8711
 20
534.1895
  0
VERTEX
999
5,2
  8
1
 10
214.5908
 20
532.7944
  0
VERTEX
999
5,2
  8
1
 10
219.4326
 20
531.7026
  0
VERTEX
999
5,2
  8
1
 10
224.3940
 20
530.9146
  0
VERTEX
999
5,2
  8
1
 10
229.4736
 20
530.4307
  0
VERTEX
999
5,2
  8
1
 10
234.6685
 20
530.2524
  0
VERTEX
999
5,1,,90
  8
1
 10
235.1069
 20
530.2515
  0
SEQEND
  0
POLYLINE
999
5
  8
1
 66
1
 70
0
  0
VERTEX
999
5,1,,91
  8
1
 10
156.3809
 20
588.6313
  0
VERTEX
999
5,2
  8
1
 10
159.5806
 20
581.8213
  0
VERTEX
999
5,2
  8
1
 10
162.7993
 20
575.7798
  0
VERTEX
999
5,2
  8
1
 10
166.2158
 20
570.0996
  0
VERTEX
999
5,2
  8
1
 10
169.5957
 20
565.1069
  0
VERTEX
999
5,2
  8
1
 10
172.9019
 20
560.7407
  0
VERTEX
999
5,2
  8
1
 10
176.3521
 20
556.6602
  0
VERTEX
999
5,2
  8
1
 10
179.9448
 20
552.8696
  0
VERTEX
999
5,2
  8
1
 10
183.6772
 20
549.3716
  0
VERTEX
999
5,1,,92
  8
1
 10
185.8726
 20
547.5049
  0
SEQEND
  0
POLYLINE
999
5
  8
1
 66
1
 70
0
  0
VERTEX
999
5,1,,93
  8
1
 10
284.3413
 20
547.5049
  0
VERTEX
999
5,2
  8
1
 10
280.0068
 20
544.1914
  0
VERTEX
999
5,2
  8
1
 10
275.8657
 20
541.4438
  0
VERTEX
999
5,2
  8
1
 10
271.5918
 20
538.9956
  0
VERTEX
999
5,2
  8
1
 10
267.1875
 20
536.8472
  0
VERTEX
999
5,2
  8
1
 10
260.3423
 20
534.1895
  0
VERTEX
999
5,2
  8
1
 10
255.6230
 20
532.7944
  0
VERTEX
999
5,2
  8
1
 10
250.7813
 20
531.7026
  0
VERTEX
999
5,2
  8
1
 10
245.8193
 20
530.9146
  0
VERTEX
999
5,2
  8
1
 10
240.7397
 20
530.4307
  0
VERTEX
999
5,2
  8
1
 10
235.5449
 20
530.2524
  0
VERTEX
999
5,1,,94
  8
1
 10
235.1069
 20
530.2515
  0
SEQEND
  0
POLYLINE
999
5
  8
1
 66
1
 70
0
  0
VERTEX
999
5,1,,95
  8
1
 10
135.1245
 20
694.1328
  0
VERTEX
999
5,2
  8
1
 10
136.1445
 20
680.0317
  0
VERTEX
999
5,2
  8
1
 10
137.2769
 20
668.4307
  0
VERTEX
999
5,2
  8
1
 10
138.6470
 20
657.2837
  0
VERTEX
999
5,2
  8
1
 10
140.2529
 20
646.5952
  0
VERTEX
999
5,2
  8
1
 10
142.0942
 20
636.3701
  0
VERTEX
999
5,2
  8
1
 10
144.1694
 20
626.6128
  0
VERTEX
999
5,2
  8
1
 10
146.4780
 20
617.3291
  0
VERTEX
999
5,2
  8
1
 10
149.0190
 20
608.5229
  0
VERTEX
999
5,2
  8
1
 10
151.7910
 20
600.2002
  0
VERTEX
999
5,2
  8
1
 10
154.2773
 20
593.6367
  0
VERTEX
999
5,1,,96
  8
1
 10
156.3809
 20
588.6313
  0
SEQEND
  0
POLYLINE
999
5
  8
1
 66
1
 70
0
  0
VERTEX
999
5,1,,97
  8
1
 10
134.9961
 20
700.0830
  0
VERTEX
999
5,1,,98
  8
1
 10
135.1079
 20
694.4771
  0
SEQEND
  0
POLYLINE
999
5
  8
1
 66
1
 70
0
  0
VERTEX
999
5,1,,99
  8
1
 10
313.8325
 20
588.6313
  0
VERTEX
999
5,2
  8
1
 10
310.6328
 20
581.8213
  0
VERTEX
999
5,2
  8
1
 10
307.4141
 20
575.7798
  0
VERTEX
999
5,2
  8
1
 10
303.9976
 20
570.0996
  0
VERTEX
999
5,2
  8
1
 10
300.6182
 20
565.1069
  0
VERTEX
999
5,2
  8
1
 10
297.3120
 20
560.7402
  0
VERTEX
999
5,2
  8
1
 10
293.8618
 20
556.6602
  0
VERTEX
999
5,2
  8
1
 10
290.2690
 20
552.8696
  0
VERTEX
999
5,2
  8
1
 10
286.5366
 20
549.3716
  0
VERTEX
999
5,1,,100
  8
1
 10
284.3413
 20
547.5049
  0
SEQEND
  0
POLYLINE
999
5
  8
1
 66
1
 70
0
  0
VERTEX
999
5,1,,101
  8
1
 10
335.0894
 20
694.1328
  0
VERTEX
999
5,2
  8
1
 10
334.0688
 20
680.0317
  0
VERTEX
999
5,2
  8
1
 10
332.9365
 20
668.4307
  0
VERTEX
999
5,2
  8
1
 10
331.5669
 20
657.2837
  0
VERTEX
999
5,2
  8
1
 10
329.9609
 20
646.5952
  0
VERTEX
999
5,2
  8
1
 10
328.1196
 20
636.3696
  0
VERTEX
999
5,2
  8
1
 10
326.0439
 20
626.6128
  0
VERTEX
999
5,2
  8
1
 10
323.7354
 20
617.3291
  0
VERTEX
999
5,2
  8
1
 10
321.1948
 20
608.5229
  0
VERTEX
999
5,2
  8
1
 10
318.4224
 20
600.2002
  0
VERTEX
999
5,2
  8
1
 10
315.9365
 20
593.6367
  0
VERTEX
999
5,1,,102
  8
1
 10
313.8325
 20
588.6313
  0
SEQEND
  0
POLYLINE
999
5
  8
1
 66
1
 70
0
  0
VERTEX
999
5,1,,103
  8
1
 10
335.2173
 20
700.0830
  0
VERTEX
999
5,1,,104
  8
1
 10
335.1060
 20
694.4771
  0
SEQEND
  0
POLYLINE
999
5
  8
1
  6
1
 66
1
 70
0
  0
VERTEX
999
5,1,,105
  8
1
 10
406.7671
 20
464.5405
  0
VERTEX
999
5,2
  8
1
 10
411.3574
 20
461.5317
  0
VERTEX
999
5,2
  8
1
 10
416.0039
 20
458.8818
  0
VERTEX
999
5,2
  8
1
 10
421.1079
 20
456.3691
  0
VERTEX
999
5,2
  8
1
 10
426.2183
 20
454.2192
  0
VERTEX
999
5,2
  8
1
 10
431.3047
 20
452.3975
  0
VERTEX
999
5,2
  8
1
 10
436.7520
 20
450.7559
  0
VERTEX
999
5,2
  8
1
 10
442.9048
 20
449.2358
  0
VERTEX
999
5,2
  8
1
 10
449.2466
 20
447.9849
  0
VERTEX
999
5,2
  8
1
 10
456.7432
 20
446.8408
  0
VERTEX
999
5,1,,106
  8
1
 10
458.8794
 20
446.5674
  0
SEQEND
  0
POLYLINE
999
5
  8
1
  6
1
 66
1
 70
0
  0
VERTEX
999
5,1,,107
  8
1
 10
365.5977
 20
534.3608
  0
VERTEX
999
5,2
  8
1
 10
367.4658
 20
526.3452
  0
VERTEX
999
5,2
  8
1
 10
369.2314
 20
520.0625
  0
VERTEX
999
5,2
  8
1
 10
370.9790
 20
514.6880
  0
VERTEX
999
5,2
  8
1
 10
372.8940
 20
509.5112
  0
VERTEX
999
5,2
  8
1
 10
374.9766
 20
504.5342
  0
VERTEX
999
5,2
  8
1
 10
377.2246
 20
499.7568
  0
VERTEX
999
5,2
  8
1
 10
379.6387
 20
495.1812
  0
VERTEX
999
5,2
  8
1
 10
382.2178
 20
490.8071
  0
VERTEX
999
5,2
  8
1
 10
384.9614
 20
486.6362
  0
VERTEX
999
5,2
  8
1
 10
387.8691
 20
482.6694
  0
VERTEX
999
5,2
  8
1
 10
390.9399
 20
478.9072
  0
VERTEX
999
5,2
  8
1
 10
394.1738
 20
475.3511
  0
VERTEX
999
5,2
  8
1
 10
397.5703
 20
472.0020
  0
VERTEX
999
5,2
  8
1
 10
401.1279
 20
468.8608
  0
VERTEX
999
5,2
  8
1
 10
404.8472
 20
465.9282
  0
VERTEX
999
5,1,,108
  8
1
 10
406.7671
 20
464.5405
  0
SEQEND
  0
POLYLINE
999
5
  8
1
  6
1
 66
1
 70
0
  0
VERTEX
999
5,1,,109
  8
1
 10
365.2158
 20
632.0034
  0
VERTEX
999
5,2
  8
1
 10
363.5659
 20
622.6631
  0
VERTEX
999
5,2
  8
1
 10
362.2646
 20
613.3867
  0
VERTEX
999
5,2
  8
1
 10
361.3120
 20
604.1665
  0
VERTEX
999
5,2
  8
1
 10
360.7080
 20
594.9932
  0
VERTEX
999
5,2
  8
1
 10
360.4531
 20
585.8569
  0
VERTEX
999
5,2
  8
1
 10
360.5469
 20
576.7495
  0
VERTEX
999
5,2
  8
1
 10
361.3418
 20
563.1221
  0
VERTEX
999
5,2
  8
1
 10
362.3076
 20
554.0469
  0
VERTEX
999
5,2
  8
1
 10
363.6226
 20
544.9683
  0
VERTEX
999
5,2
  8
1
 10
365.2861
 20
535.8779
  0
VERTEX
999
5,1,,110
  8
1
 10
365.5972
 20
534.3608
  0
SEQEND
  0
POLYLINE
999
5
  8
1
  6
1
 66
1
 70
0
  0
VERTEX
999
5,1,,111
  8
1
 10
377.1245
 20
672.9609
  0
VERTEX
999
5,2
  8
1
 10
374.8784
 20
667.2725
  0
VERTEX
999
5,2
  8
1
 10
372.3799
 20
660.0298
  0
VERTEX
999
5,2
  8
1
 10
370.0552
 20
652.3516
  0
VERTEX
999
5,2
  8
1
 10
367.8726
 20
644.0923
  0
VERTEX
999
5,2
  8
1
 10
365.9658
 20
635.7124
  0
VERTEX
999
5,1,,112
  8
1
 10
365.2158
 20
632.0034
  0
SEQEND
  0
POLYLINE
999
5
  8
1
  6
1
 66
1
 70
0
  0
VERTEX
999
5,1,,113
  8
1
 10
403.8950
 20
460.4478
  0
VERTEX
999
5,2
  8
1
 10
408.7178
 20
457.2847
  0
VERTEX
999
5,2
  8
1
 10
413.1460
 20
454.7378
  0
VERTEX
999
5,2
  8
1
 10
418.4888
 20
452.0654
  0
VERTEX
999
5,2
  8
1
 10
423.8330
 20
449.7783
  0
VERTEX
999
5,2
  8
1
 10
429.1475
 20
447.8403
  0
VERTEX
999
5,2
  8
1
 10
434.4004
 20
446.2163
  0
VERTEX
999
5,2
  8
1
 10
440.4102
 20
444.6709
  0
VERTEX
999
5,2
  8
1
 10
447.0596
 20
443.2954
  0
VERTEX
999
5,2
  8
1
 10
454.1733
 20
442.1465
  0
VERTEX
999
5,1,,114
  8
1
 10
458.2856
 20
441.6025
  0
SEQEND
  0
POLYLINE
999
5
  8
1
  6
1
 66
1
 70
0
  0
VERTEX
999
5,1,,115
  8
1
 10
360.7026
 20
533.3408
  0
VERTEX
999
5,2
  8
1
 10
362.2700
 20
526.4878
  0
VERTEX
999
5,2
  8
1
 10
363.8525
 20
520.6108
  0
VERTEX
999
5,2
  8
1
 10
365.6133
 20
514.9365
  0
VERTEX
999
5,2
  8
1
 10
367.5508
 20
509.4663
  0
VERTEX
999
5,2
  8
1
 10
369.6650
 20
504.2007
  0
VERTEX
999
5,2
  8
1
 10
371.9551
 20
499.1411
  0
VERTEX
999
5,2
  8
1
 10
374.4209
 20
494.2886
  0
VERTEX
999
5,2
  8
1
 10
377.0615
 20
489.6440
  0
VERTEX
999
5,2
  8
1
 10
379.8760
 20
485.2085
  0
VERTEX
999
5,2
  8
1
 10
382.8643
 20
480.9824
  0
VERTEX
999
5,2
  8
1
 10
386.0254
 20
476.9673
  0
VERTEX
999
5,2
  8
1
 10
389.3589
 20
473.1646
  0
VERTEX
999
5,2
  8
1
 10
392.8647
 20
469.5742
  0
VERTEX
999
5,2
  8
1
 10
396.5415
 20
466.1982
  0
VERTEX
999
5,2
  8
1
 10
400.3887
 20
463.0371
  0
VERTEX
999
5,1,,116
  8
1
 10
403.8950
 20
460.4478
  0
SEQEND
  0
POLYLINE
999
5
  8
1
  6
1
 66
1
 70
0
  0
VERTEX
999
5,1,,117
  8
1
 10
360.3081
 20
632.9585
  0
VERTEX
999
5,2
  8
1
 10
358.6250
 20
623.4316
  0
VERTEX
999
5,2
  8
1
 10
357.2979
 20
613.9697
  0
VERTEX
999
5,2
  8
1
 10
356.3267
 20
604.5645
  0
VERTEX
999
5,2
  8
1
 10
355.7109
 20
595.2061
  0
VERTEX
999
5,2
  8
1
 10
355.4512
 20
585.8857
  0
VERTEX
999
5,2
  8
1
 10
355.5474
 20
576.5938
  0
VERTEX
999
5,2
  8
1
 10
356.3589
 20
562.6899
  0
VERTEX
999
5,2
  8
1
 10
357.3447
 20
553.4297
  0
VERTEX
999
5,2
  8
1
 10
358.6870
 20
544.1655
  0
VERTEX
999
5,2
  8
1
 10
360.3848
 20
534.8892
  0
VERTEX
999
5,1,,118
  8
1
 10
360.7026
 20
533.3408
  0
SEQEND
  0
POLYLINE
999
5
  8
1
  6
1
 66
1
 70
0
  0
VERTEX
999
5,1,,119
  8
1
 10
372.4814
 20
674.8193
  0
VERTEX
999
5,2
  8
1
 10
370.0967
 20
668.7432
  0
VERTEX
999
5,2
  8
1
 10
367.6450
 20
661.6182
  0
VERTEX
999
5,2
  8
1
 10
365.2949
 20
653.8760
  0
VERTEX
999
5,2
  8
1
 10
363.0933
 20
645.5859
  0
VERTEX
999
5,2
  8
1
 10
361.1704
 20
637.2021
  0
VERTEX
999
5,1,,120
  8
1
 10
360.3081
 20
632.9585
  0
SEQEND
  0
POLYLINE
999
5
  8
1
 66
1
 70
0
  0
VERTEX
999
5,1,,121
  8
1
 10
403.0332
 20
459.2197
  0
VERTEX
999
5,2
  8
1
 10
398.4829
 20
462.6279
  0
VERTEX
999
5,2
  8
1
 10
394.6226
 20
465.8887
  0
VERTEX
999
5,2
  8
1
 10
390.9351
 20
469.3662
  0
VERTEX
999
5,2
  8
1
 10
387.4224
 20
473.0591
  0
VERTEX
999
5,2
  8
1
 10
384.0840
 20
476.9663
  0
VERTEX
999
5,2
  8
1
 10
380.9214
 20
481.0874
  0
VERTEX
999
5,2
  8
1
 10
377.9346
 20
485.4209
  0
VERTEX
999
5,2
  8
1
 10
375.1245
 20
489.9658
  0
VERTEX
999
5,2
  8
1
 10
372.4912
 20
494.7217
  0
VERTEX
999
5,2
  8
1
 10
370.0361
 20
499.6870
  0
VERTEX
999
5,2
  8
1
 10
367.7593
 20
504.8608
  0
VERTEX
999
5,2
  8
1
 10
365.6616
 20
510.2417
  0
VERTEX
999
5,2
  8
1
 10
363.7432
 20
515.8296
  0
VERTEX
999
5,2
  8
1
 10
362.0049
 20
521.6226
  0
VERTEX
999
5,2
  8
1
 10
360.4478
 20
527.6201
  0
VERTEX
999
5,1,,122
  8
1
 10
359.2339
 20
533.0352
  0
SEQEND
  0
POLYLINE
999
5
  8
1
 66
1
 70
0
  0
VERTEX
999
5,1,,123
  8
1
 10
458.1016
 20
440.1138
  0
VERTEX
999
5,2
  8
1
 10
449.1958
 20
441.3975
  0
VERTEX
999
5,2
  8
1
 10
442.5767
 20
442.6519
  0
VERTEX
999
5,2
  8
1
 10
436.1304
 20
444.1855
  0
VERTEX
999
5,2
  8
1
 10
430.8491
 20
445.7095
  0
VERTEX
999
5,2
  8
1
 10
425.4907
 20
447.5371
  0
VERTEX
999
5,2
  8
1
 10
420.0864
 20
449.7046
  0
VERTEX
999
5,2
  8
1
 10
414.6689
 20
452.2476
  0
VERTEX
999
5,2
  8
1
 10
410.1665
 20
454.6802
  0
VERTEX
999
5,2
  8
1
 10
405.6943
 20
457.4199
  0
VERTEX
999
5,1,,124
  8
1
 10
403.0332
 20
459.2197
  0
SEQEND
  0
POLYLINE
999
5
  8
1
 66
1
 70
0
  0
VERTEX
999
5,1,,125
  8
1
 10
359.2339
 20
533.0352
  0
VERTEX
999
5,2
  8
1
 10
357.5767
 20
541.7461
  0
VERTEX
999
5,2
  8
1
 10
356.3926
 20
549.3047
  0
VERTEX
999
5,2
  8
1
 10
355.4639
 20
556.6831
  0
VERTEX
999
5,2
  8
1
 10
354.6353
 20
565.6450
  0
VERTEX
999
5,2
  8
1
 10
354.1460
 20
574.3076
  0
VERTEX
999
5,2
  8
1
 10
353.9766
 20
586.7163
  0
VERTEX
999
5,2
  8
1
 10
354.2632
 20
596.1172
  0
VERTEX
999
5,2
  8
1
 10
354.8638
 20
605.0298
  0
VERTEX
999
5,2
  8
1
 10
355.7217
 20
613.4370
  0
VERTEX
999
5,2
  8
1
 10
356.8755
 20
621.9531
  0
VERTEX
999
5,2
  8
1
 10
358.5122
 20
631.5557
  0
VERTEX
999
5,1,,126
  8
1
 10
358.8359
 20
633.2451
  0
SEQEND
  0
POLYLINE
999
5
  8
1
 66
1
 70
0
  0
VERTEX
999
5,1,,127
  8
1
 10
358.8359
 20
633.2451
  0
VERTEX
999
5,2
  8
1
 10
360.8154
 20
642.5190
  0
VERTEX
999
5,2
  8
1
 10
362.8926
 20
650.8125
  0
VERTEX
999
5,2
  8
1
 10
365.2129
 20
658.8857
  0
VERTEX
999
5,2
  8
1
 10
367.8110
 20
666.8081
  0
VERTEX
999
5,2
  8
1
 10
370.3271
 20
673.5313
  0
VERTEX
999
5,1,,128
  8
1
 10
371.4263
 20
676.1509
  0
SEQEND
  0
POLYLINE
999
5
  8
1
 66
1
 70
0
  0
VERTEX
999
5,1,,129
  8
1
 10
470.2139
 20
439.0322
  0
VERTEX
999
5,1,,130
  8
1
 10
458.3701
 20
440.0830
  0
SEQEND
  0
POLYLINE
999
5
  8
1
 66
1
 70
0
  0
VERTEX
999
5,1,,131
  8
1
 10
371.6255
 20
676.5771
  0
VERTEX
999
5,2
  8
1
 10
372.9463
 20
679.1514
  0
VERTEX
999
5,1,,132
  8
1
 10
375.8164
 20
684.3511
  0
SEQEND
  0
POLYLINE
999
5
  8
1
  6
1
 66
1
 70
0
  0
VERTEX
999
5,1,,133
  8
1
 10
307.8833
 20
591.2500
  0
VERTEX
999
5,2
  8
1
 10
310.8535
 20
598.4746
  0
VERTEX
999
5,2
  8
1
 10
313.6099
 20
606.1665
  0
VERTEX
999
5,2
  8
1
 10
316.1523
 20
614.3213
  0
VERTEX
999
5,2
  8
1
 10
318.4790
 20
622.9346
  0
VERTEX
999
5,2
  8
1
 10
320.5903
 20
632.0020
  0
VERTEX
999
5,2
  8
1
 10
322.4844
 20
641.5181
  0
VERTEX
999
5,2
  8
1
 10
324.1606
 20
651.4795
  0
VERTEX
999
5,2
  8
1
 10
325.6182
 20
661.8813
  0
VERTEX
999
5,2
  8
1
 10
326.8560
 20
672.7188
  0
VERTEX
999
5,2
  8
1
 10
327.8735
 20
683.9878
  0
VERTEX
999
5,1,,134
  8
1
 10
328.4287
 20
691.7383
  0
SEQEND
  0
POLYLINE
999
5
  8
1
  6
1
 66
1
 70
0
  0
VERTEX
999
5,1,,135
  8
1
 10
280.2202
 20
552.5313
  0
VERTEX
999
5,2
  8
1
 10
284.0259
 20
555.8740
  0
VERTEX
999
5,2
  8
1
 10
287.4478
 20
559.2866
  0
VERTEX
999
5,2
  8
1
 10
290.7417
 20
562.9795
  0
VERTEX
999
5,2
  8
1
 10
294.3477
 20
567.5396
  0
VERTEX
999
5,2
  8
1
 10
297.7813
 20
572.4570
  0
VERTEX
999
5,2
  8
1
 10
301.0391
 20
577.7285
  0
VERTEX
999
5,2
  8
1
 10
304.1182
 20
583.3496
  0
VERTEX
999
5,2
  8
1
 10
307.0156
 20
589.3154
  0
VERTEX
999
5,1,,136
  8
1
 10
307.8833
 20
591.2500
  0
SEQEND
  0
POLYLINE
999
5
  8
1
  6
1
 66
1
 70
0
  0
VERTEX
999
5,1,,137
  8
1
 10
235.1069
 20
536.7515
  0
VERTEX
999
5,2
  8
1
 10
240.6670
 20
536.9419
  0
VERTEX
999
5,2
  8
1
 10
245.3169
 20
537.4072
  0
VERTEX
999
5,2
  8
1
 10
249.8579
 20
538.1514
  0
VERTEX
999
5,2
  8
1
 10
254.2871
 20
539.1729
  0
VERTEX
999
5,2
  8
1
 10
258.6030
 20
540.4717
  0
VERTEX
999
5,2
  8
1
 10
262.8032
 20
542.0464
  0
VERTEX
999
5,2
  8
1
 10
268.8828
 20
544.9248
  0
VERTEX
999
5,2
  8
1
 10
272.7856
 20
547.1870
  0
VERTEX
999
5,2
  8
1
 10
276.5649
 20
549.7227
  0
VERTEX
999
5,1,,138
  8
1
 10
280.2202
 20
552.5313
  0
SEQEND
  0
POLYLINE
999
5
  8
1
  6
1
 66
1
 70
0
  0
VERTEX
999
5,1,,139
  8
1
 10
312.4600
 20
589.2354
  0
VERTEX
999
5,2
  8
1
 10
315.4575
 20
596.5181
  0
VERTEX
999
5,2
  8
1
 10
318.2417
 20
604.2583
  0
VERTEX
999
5,2
  8
1
 10
320.8125
 20
612.4512
  0
VERTEX
999
5,2
  8
1
 10
323.1680
 20
621.0928
  0
VERTEX
999
5,2
  8
1
 10
325.3076
 20
630.1792
  0
VERTEX
999
5,2
  8
1
 10
327.2310
 20
639.7056
  0
VERTEX
999
5,2
  8
1
 10
328.9365
 20
649.6670
  0
VERTEX
999
5,2
  8
1
 10
330.4233
 20
660.0601
  0
VERTEX
999
5,2
  8
1
 10
331.6914
 20
670.8799
  0
VERTEX
999
5,2
  8
1
 10
332.7393
 20
682.1221
  0
VERTEX
999
5,1,,140
  8
1
 10
333.3149
 20
689.8496
  0
SEQEND
  0
POLYLINE
999
5
  8
1
  6
1
 66
1
 70
0
  0
VERTEX
999
5,1,,141
  8
1
 10
283.3901
 20
548.6650
  0
VERTEX
999
5,2
  8
1
 10
287.4058
 20
552.1895
  0
VERTEX
999
5,2
  8
1
 10
291.0132
 20
555.7803
  0
VERTEX
999
5,2
  8
1
 10
294.4824
 20
559.6602
  0
VERTEX
999
5,2
  8
1
 10
297.8115
 20
563.8257
  0
VERTEX
999
5,2
  8
1
 10
301.2207
 20
568.6016
  0
VERTEX
999
5,2
  8
1
 10
304.6738
 20
574.0493
  0
VERTEX
999
5,2
  8
1
 10
307.9351
 20
579.8574
  0
VERTEX
999
5,2
  8
1
 10
311.0010
 20
586.0215
  0
VERTEX
999
5,1,,142
  8
1
 10
312.4600
 20
589.2354
  0
SEQEND
  0
POLYLINE
999
5
  8
1
  6
1
 66
1
 70
0
  0
VERTEX
999
5,1,,143
  8
1
 10
235.1069
 20
531.7515
  0
VERTEX
999
5,2
  8
1
 10
240.6323
 20
531.9272
  0
VERTEX
999
5,2
  8
1
 10
245.6147
 20
532.4014
  0
VERTEX
999
5,2
  8
1
 10
250.4814
 20
533.1738
  0
VERTEX
999
5,2
  8
1
 10
255.2305
 20
534.2441
  0
VERTEX
999
5,2
  8
1
 10
259.8589
 20
535.6113
  0
VERTEX
999
5,2
  8
1
 10
264.3652
 20
537.2744
  0
VERTEX
999
5,2
  8
1
 10
270.8901
 20
540.3232
  0
VERTEX
999
5,2
  8
1
 10
275.0806
 20
542.7236
  0
VERTEX
999
5,2
  8
1
 10
279.1411
 20
545.4170
  0
VERTEX
999
5,2
  8
1
 10
283.0688
 20
548.4028
  0
VERTEX
999
5,1,,144
  8
1
 10
283.3901
 20
548.6650
  0
SEQEND
  0
ENDBLK
  0
BLOCK
  8
1
  2
P0003_05
 70
64
 10
0.0000
 20
0.0000
  0
TEXT
  8
1
 10
245.8921
 20
9.8892
 40
8.0000
 50
0.0000
  1
PIECE: PARTS3
  7
STANDARD
  0
TEXT
  8
1
 10
245.8921
 20
0.6892
 40
8.0000
 50
0.0000
  1
SIZE: M
  7
STANDARD
  0
TEXT
  8
1
 10
245.8921
 20
-8.5108
 40
8.0000
 50
0.0000
  1
FABRIC:
  7
STANDARD
  0
TEXT
  8
1
 10
245.8921
 20
-17.7108
 40
8.0000
 50
0.0000
  1
QUANTITY:
  7
STANDARD
  0
TEXT
  8
1
 10
103.2471
 20
0.1982
 40
8.0000
 50
0.0000
  1
COMMENT: B  C
  7
STANDARD
  0
TEXT
  8
1
 10
300.9683
 20
0.2104
 40
8.0000
 50
0.0000
  1
COMMENT: 1.0
  7
STANDARD
  0
TEXT
  8
1
 10
321.1069
 20
34.7163
 40
11.0000
 50
0.0000
  1
COMMENT: FOP-58/Size:M
  7
STANDARD
  0
TEXT
  8
1
 10
321.1069
 20
26.2495
 40
11.0000
 50
0.0000
  1
COMMENT: 衿バインダー布(表1枚)
  7
STANDARD
  0
TEXT
  8
1
 10
390.0552
 20
0.1982
 40
8.0000
 50
0.0000
  1
COMMENT: F  C
  7
STANDARD
  0
TEXT
  8
1
 10
585.6602
 20
9.7354
 40
8.0000
 50
0.0000
  1
COMMENT: 1.0
  7
STANDARD
  0
POLYLINE
999
1
  8
1
 66
1
 70
0
  0
VERTEX
999
1,1,,1
  8
1
 10
594.0005
 20
0.0000
  0
VERTEX
999
1,1,,2
  8
1
 10
0.0000
 20
0.0000
  0
VERTEX
999
1,1,,3
  8
1
 10
0.0000
 20
50.0000
  0
VERTEX
999
1,1,,4
  8
1
 10
594.0005
 20
50.0000
  0
VERTEX
999
1,1,,5
  8
1
 10
594.0005
 20
0.0000
  0
SEQEND
  0
LINE
999
5,1,,6
  8
1
 10
10.0000
 20
10.0000
 11
10.0000
 21
25.0000
  0
LINE
999
5,1,,8
  8
1
 10
584.0005
 20
10.0000
 11
10.0000
 21
10.0000
  0
LINE
999
5,1,,10
  8
1
 10
584.0005
 20
25.0000
 11
584.0005
 21
10.0000
  0
LINE
999
5,1,,12
  8
1
  6
1
 10
584.0005
 20
11.5005
 11
10.0000
 21
11.5005
  0
LINE
999
5,1,,14
  8
1
  6
1
 10
584.0005
 20
16.5000
 11
10.0000
 21
16.5000
  0
LINE
999
5,1,,16
  8
1
 10
0.1279
 20
25.0000
 11
594.2061
 21
25.0000
  0
LINE
999
5,1,,18
  8
1
 10
107.0000
 20
0.1226
 11
107.0000
 21
49.9561
  0
LINE
999
5,1,,20
  8
1
 10
204.0000
 20
0.1226
 11
204.0000
 21
15.1226
  0
LINE
999
5,1,,22
  8
1
 10
204.0000
 20
49.8779
 11
204.0000
 21
34.8779
  0
LINE
999
5,1,,24
  8
1
 10
394.0000
 20
0.1226
 11
394.0000
 21
50.0605
  0
LINE
999
5,1,,26
  8
1
 10
394.1807
 20
45.1216
 11
400.5308
 21
30.3047
  0
LINE
999
5,1,,28
  8
1
 10
387.8311
 20
29.2466
 11
394.1807
 21
14.4297
  0
ENDBLK
  0
BLOCK
  8
1
  2
P0004_05
 70
64
 10
0.0000
 20
0.0000
  0
TEXT
  8
1
 10
220.0791
 20
9.8892
 40
8.0000
 50
0.0000
  1
PIECE: PARTS4
  7
STANDARD
  0
TEXT
  8
1
 10
220.0791
 20
0.6892
 40
8.0000
 50
0.0000
  1
SIZE: M
  7
STANDARD
  0
TEXT
  8
1
 10
220.0791
 20
-8.5108
 40
8.0000
 50
0.0000
  1
FABRIC:
  7
STANDARD
  0
TEXT
  8
1
 10
220.0791
 20
-17.7108
 40
8.0000
 50
0.0000
  1
QUANTITY:
  7
STANDARD
  0
TEXT
  8
1
 10
526.9824
 20
9.5547
 40
8.0000
 50
0.0000
  1
COMMENT: 1.0
  7
STANDARD
  0
TEXT
  8
1
 10
1.6963
 20
9.5547
 40
8.0000
 50
0.0000
  1
COMMENT: 1.0
  7
STANDARD
  0
TEXT
  8
1
 10
144.9243
 20
-0.3228
 40
8.0000
 50
0.0000
  1
COMMENT: 1.0
  7
STANDARD
  0
TEXT
  8
1
 10
159.7710
 20
34.8882
 40
11.0000
 50
0.0000
  1
COMMENT: FOP-58/Size:M
  7
STANDARD
  0
TEXT
  8
1
 10
159.7710
 20
26.4219
 40
11.0000
 50
0.0000
  1
COMMENT: A.H.バインダー布(表2枚)
  7
STANDARD
  0
POLYLINE
999
1
  8
1
 66
1
 70
0
  0
VERTEX
999
1,1,,1
  8
1
 10
534.9995
 20
0.0000
  0
VERTEX
999
1,1,,2
  8
1
 10
0.0000
 20
0.0000
  0
VERTEX
999
1,1,,3
  8
1
 10
0.0000
 20
50.0000
  0
VERTEX
999
1,1,,4
  8
1
 10
534.9995
 20
50.0000
  0
VERTEX
999
1,1,,5
  8
1
 10
534.9995
 20
0.0000
  0
SEQEND
  0
LINE
999
5,1,,6
  8
1
 10
516.0518
 20
27.1074
 11
512.7285
 21
27.1074
  0
LINE
999
5,1,,8
  8
1
 10
512.8555
 20
29.3511
 11
512.8555
 21
33.6055
  0
LINE
999
5,1,,10
  8
1
 10
512.8555
 20
33.6055
 11
512.8555
 21
34.8545
  0
LINE
999
5,1,,12
  8
1
 10
515.2266
 20
42.3467
 11
517.7661
 21
40.5903
  0
LINE
999
5,1,,14
  8
1
 10
517.7661
 20
40.5903
 11
517.4063
 21
40.0610
  0
LINE
999
5,1,,16
  8
1
 10
517.4063
 20
40.0610
 11
517.1943
 21
39.7437
  0
LINE
999
5,1,,18
  8
1
 10
517.1943
 20
39.7437
 11
517.0039
 21
39.4688
  0
LINE
999
5,1,,20
  8
1
 10
517.5757
 20
39.4473
 11
519.6709
 21
39.4473
  0
LINE
999
5,1,,22
  8
1
 10
519.6709
 20
39.4473
 11
520.1792
 21
39.9131
  0
LINE
999
5,1,,24
  8
1
 10
516.4751
 20
42.8760
 11
518.5493
 21
45.2041
  0
LINE
999
5,1,,26
  8
1
 10
521.2798
 20
47.2363
 11
524.3486
 21
46.1992
  0
LINE
999
5,1,,28
  8
1
 10
524.3486
 20
46.1992
 11
523.8193
 21
45.5005
  0
LINE
999
5,1,,30
  8
1
 10
525.3013
 20
45.8394
 11
528.3701
 21
44.3999
  0
LINE
999
5,1,,32
  8
1
 10
523.8618
 20
39.5742
 11
525.0684
 21
39.6377
  0
LINE
999
5,1,,34
  8
1
 10
525.5762
 20
40.9502
 11
528.1797
 21
42.2627
  0
LINE
999
5,1,,36
  8
1
 10
531.0586
 20
37.3516
 11
528.2222
 21
35.8701
  0
LINE
999
5,1,,38
  8
1
 10
528.2222
 20
35.8701
 11
527.5869
 21
37.3311
  0
LINE
999
5,1,,40
  8
1
 10
523.1846
 20
36.3145
 11
525.8306
 21
36.3145
  0
LINE
999
5,1,,42
  8
1
 10
527.4814
 20
36.3779
 11
529.1748
 21
34.7275
  0
LINE
999
5,1,,44
  8
1
 10
515.9673
 20
38.0078
 11
515.9673
 21
33.7749
  0
LINE
999
5,1,,46
  8
1
 10
516.8135
 20
36.3569
 11
516.5811
 21
38.8545
  0
LINE
999
5,1,,48
  8
1
 10
519.9253
 20
36.6323
 11
517.6392
 21
36.4629
  0
LINE
999
5,1,,50
  8
1
 10
515.9673
 20
32.9917
 11
515.9673
 21
29.8379
  0
LINE
999
5,1,,52
  8
1
 10
524.6450
 20
33.8384
 11
521.8301
 21
33.8384
  0
LINE
999
5,1,,54
  8
1
 10
515.0781
 20
47.3213
 11
517.6602
 21
45.4160
  0
LINE
999
5,1,,56
  8
1
 10
517.6602
 20
45.4160
 11
516.6655
 21
44.2520
  0
LINE
999
5,1,,58
  8
1
 10
25.7251
 20
44.7388
 11
25.7251
 21
41.6064
  0
LINE
999
5,1,,60
  8
1
 10
23.3335
 20
41.7119
 11
9.0044
 21
41.7119
  0
LINE
999
5,1,,62
  8
1
 10
6.5918
 20
41.6064
 11
6.5918
 21
44.7388
  0
LINE
999
5,1,,64
  8
1
 10
9.0044
 20
44.6118
 11
11.1631
 21
44.6118
  0
LINE
999
5,1,,66
  8
1
 10
9.9990
 20
46.3052
 11
13.3223
 21
47.1304
  0
LINE
999
5,1,,68
  8
1
 10
14.8252
 20
44.6118
 11
17.4707
 21
44.6118
  0
LINE
999
5,1,,70
  8
1
 10
18.8042
 20
47.0879
 11
22.2539
 21
46.3052
  0
LINE
999
5,1,,72
  8
1
 10
21.1113
 20
44.6118
 11
23.3335
 21
44.6118
  0
LINE
999
5,1,,74
  8
1
 10
10.6763
 20
27.1289
 11
7.3530
 21
27.1289
  0
LINE
999
5,1,,76
  8
1
 10
7.4805
 20
29.6689
 11
7.4805
 21
39.0239
  0
LINE
999
5,1,,78
  8
1
 10
9.3218
 20
40.8867
 11
14.3169
 21
40.8867
  0
LINE
999
5,1,,80
  8
1
 10
16.0947
 20
38.9395
 11
16.0947
 21
29.7324
  0
LINE
999
5,1,,82
  8
1
 10
13.0259
 20
30.4097
 11
13.0259
 21
31.3408
  0
LINE
999
5,1,,84
  8
1
 10
13.0259
 20
31.3408
 11
10.5708
 21
31.3408
  0
LINE
999
5,1,,86
  8
1
 10
10.5708
 20
31.3408
 11
10.5708
 21
29.4355
  0
LINE
999
5,1,,88
  8
1
 10
20.4976
 20
31.4893
 11
17.2588
 21
31.4893
  0
LINE
999
5,1,,90
  8
1
 10
17.3438
 20
33.6265
 11
17.3438
 21
38.4526
  0
LINE
999
5,1,,92
  8
1
 10
17.2588
 20
40.4634
 11
20.4976
 21
40.4634
  0
LINE
999
5,1,,94
  8
1
 10
20.4126
 20
38.4312
 11
20.4126
 21
33.6689
  0
LINE
999
5,1,,96
  8
1
 10
21.6616
 20
30.7480
 11
21.6616
 21
38.8760
  0
LINE
999
5,1,,98
  8
1
 10
21.5767
 20
40.9922
 11
24.9214
 21
40.9922
  0
LINE
999
5,1,,100
  8
1
 10
24.8149
 20
38.7910
 11
24.8149
 21
30.1553
  0
LINE
999
5,1,,102
  8
1
 10
10.5708
 20
37.2461
 11
13.0259
 21
37.2461
  0
LINE
999
5,1,,104
  8
1
 10
10.5708
 20
38.1987
 11
10.5708
 21
37.2461
  0
LINE
999
5,1,,106
  8
1
 10
13.0259
 20
38.1987
 11
10.5708
 21
38.1987
  0
LINE
999
5,1,,108
  8
1
 10
13.0259
 20
37.2461
 11
13.0259
 21
38.1987
  0
LINE
999
5,1,,110
  8
1
 10
10.5708
 20
33.8169
 11
13.0259
 21
33.8169
  0
LINE
999
5,1,,112
  8
1
 10
10.5708
 20
34.7695
 11
10.5708
 21
33.8169
  0
LINE
999
5,1,,114
  8
1
 10
13.0259
 20
34.7695
 11
10.5708
 21
34.7695
  0
LINE
999
5,1,,116
  8
1
 10
13.0259
 20
33.8169
 11
13.0259
 21
34.7695
  0
LINE
999
5,1,,118
  8
1
 10
524.9995
 20
10.0000
 11
10.0000
 21
10.0000
  0
LINE
999
5,1,,120
  8
1
 10
524.9995
 20
25.0000
 11
524.9995
 21
10.0000
  0
LINE
999
5,1,,122
  8
1
 10
10.0000
 20
10.0000
 11
10.0000
 21
25.0000
  0
LINE
999
5,1,,124
  8
1
  6
1
 10
524.9995
 20
11.5000
 11
10.0000
 21
11.5000
  0
LINE
999
5,1,,126
  8
1
  6
1
 10
524.9995
 20
16.4995
 11
10.0000
 21
16.4995
  0
LINE
999
5,1,,128
  8
1
 10
0.0117
 20
25.0000
 11
535.1758
 21
25.0000
  0
LINE
999
5,1,,130
  8
1
 10
274.9995
 20
49.8799
 11
274.9995
 21
0.1382
  0
LINE
999
5,1,,132
  8
1
 10
274.8257
 20
44.9409
 11
281.1758
 21
30.1240
  0
LINE
999
5,1,,134
  8
1
 10
268.4756
 20
29.0659
 11
274.8257
 21
14.2490
  0
POLYLINE
999
5
  8
1
 66
1
 70
0
  0
VERTEX
999
5,1,,136
  8
1
 10
523.3330
 20
29.1816
  0
VERTEX
999
5,2
  8
1
 10
522.7798
 20
28.8682
  0
VERTEX
999
5,2
  8
1
 10
522.2163
 20
28.5747
  0
VERTEX
999
5,2
  8
1
 10
521.6426
 20
28.3022
  0
VERTEX
999
5,2
  8
1
 10
521.0586
 20
28.0518
  0
VERTEX
999
5,2
  8
1
 10
520.5137
 20
27.8433
  0
VERTEX
999
5,2
  8
1
 10
519.9609
 20
27.6548
  0
VERTEX
999
5,2
  8
1
 10
519.4028
 20
27.4863
  0
VERTEX
999
5,2
  8
1
 10
518.8389
 20
27.3354
  0
VERTEX
999
5,1,,137
  8
1
 10
517.0679
 20
26.9385
  0
SEQEND
  0
POLYLINE
999
5
  8
1
 66
1
 70
0
  0
VERTEX
999
5,1,,138
  8
1
 10
517.0679
 20
26.9385
  0
VERTEX
999
5,2
  8
1
 10
516.9160
 20
27.4258
  0
VERTEX
999
5,2
  8
1
 10
516.7417
 20
27.9048
  0
VERTEX
999
5,2
  8
1
 10
516.5444
 20
28.3755
  0
VERTEX
999
5,2
  8
1
 10
516.3247
 20
28.8359
  0
VERTEX
999
5,1,,139
  8
1
 10
515.9673
 20
29.4780
  0
SEQEND
  0
POLYLINE
999
5
  8
1
 66
1
 70
0
  0
VERTEX
999
5,1,,140
  8
1
 10
515.9673
 20
29.4780
  0
VERTEX
999
5,1,,141
  8
1
 10
516.0518
 20
27.1074
  0
SEQEND
  0
POLYLINE
999
5
  8
1
 66
1
 70
0
  0
VERTEX
999
5,1,,142
  8
1
 10
512.7285
 20
27.1074
  0
VERTEX
999
5,2
  8
1
 10
512.8296
 20
28.1821
  0
VERTEX
999
5,1,,143
  8
1
 10
512.8555
 20
29.3511
  0
SEQEND
  0
POLYLINE
999
5
  8
1
 66
1
 70
0
  0
VERTEX
999
5,1,,144
  8
1
 10
512.8555
 20
34.8545
  0
VERTEX
999
5,1,,145
  8
1
 10
511.7974
 20
33.9019
  0
SEQEND
  0
POLYLINE
999
5
  8
1
 66
1
 70
0
  0
VERTEX
999
5,1,,146
  8
1
 10
511.7974
 20
33.9019
  0
VERTEX
999
5,2
  8
1
 10
511.4126
 20
35.3486
  0
VERTEX
999
5,2
  8
1
 10
511.2549
 20
35.8047
  0
VERTEX
999
5,2
  8
1
 10
511.0752
 20
36.2524
  0
VERTEX
999
5,2
  8
1
 10
510.8750
 20
36.6914
  0
VERTEX
999
5,1,,147
  8
1
 10
510.6548
 20
37.1211
  0
SEQEND
  0
POLYLINE
999
5
  8
1
 66
1
 70
0
  0
VERTEX
999
5,1,,148
  8
1
 10
510.6123
 20
37.2036
  0
VERTEX
999
5,2
  8
1
 10
511.1240
 20
37.5879
  0
VERTEX
999
5,2
  8
1
 10
511.6211
 20
37.9902
  0
VERTEX
999
5,2
  8
1
 10
512.1030
 20
38.4102
  0
VERTEX
999
5,2
  8
1
 10
512.5703
 20
38.8472
  0
VERTEX
999
5,2
  8
1
 10
512.9727
 20
39.2500
  0
VERTEX
999
5,2
  8
1
 10
513.3608
 20
39.6650
  0
VERTEX
999
5,2
  8
1
 10
513.7354
 20
40.0933
  0
VERTEX
999
5,2
  8
1
 10
514.0952
 20
40.5342
  0
VERTEX
999
5,2
  8
1
 10
514.3667
 20
40.8950
  0
VERTEX
999
5,2
  8
1
 10
514.6216
 20
41.2671
  0
VERTEX
999
5,2
  8
1
 10
514.8604
 20
41.6504
  0
VERTEX
999
5,1,,149
  8
1
 10
515.0820
 20
42.0439
  0
SEQEND
  0
LINE
999
5,1,,150
  8
1
 10
515.0820
 20
42.0439
 11
515.2266
 21
42.3467
  0
LINE
999
5,1,,152
  8
1
 10
517.0039
 20
39.4688
 11
517.5757
 21
39.4473
  0
POLYLINE
999
5
  8
1
 66
1
 70
0
  0
VERTEX
999
5,1,,154
  8
1
 10
520.1792
 20
39.9131
  0
VERTEX
999
5,1,,155
  8
1
 10
516.8457
 20
42.6235
  0
SEQEND
  0
LINE
999
5,1,,156
  8
1
 10
516.8457
 20
42.6235
 11
516.4751
 21
42.8760
  0
POLYLINE
999
5
  8
1
 66
1
 70
0
  0
VERTEX
999
5,1,,158
  8
1
 10
518.5493
 20
45.2041
  0
VERTEX
999
5,1,,159
  8
1
 10
519.4385
 20
44.5693
  0
SEQEND
  0
POLYLINE
999
5
  8
1
 66
1
 70
0
  0
VERTEX
999
5,1,,160
  8
1
 10
519.4385
 20
44.5693
  0
VERTEX
999
5,2
  8
1
 10
519.8306
 20
45.0405
  0
VERTEX
999
5,2
  8
1
 10
520.2056
 20
45.5249
  0
VERTEX
999
5,2
  8
1
 10
520.5625
 20
46.0225
  0
VERTEX
999
5,2
  8
1
 10
520.9019
 20
46.5332
  0
VERTEX
999
5,1,,161
  8
1
 10
521.2798
 20
47.2363
  0
SEQEND
  0
POLYLINE
999
5
  8
1
 66
1
 70
0
  0
VERTEX
999
5,1,,162
  8
1
 10
523.8198
 20
45.5005
  0
VERTEX
999
5,1,,163
  8
1
 10
521.6187
 20
42.8550
  0
SEQEND
  0
POLYLINE
999
5
  8
1
 66
1
 70
0
  0
VERTEX
999
5,1,,164
  8
1
 10
521.6187
 20
42.8550
  0
VERTEX
999
5,1,,165
  8
1
 10
522.3804
 20
42.1353
  0
SEQEND
  0
POLYLINE
999
5
  8
1
 66
1
 70
0
  0
VERTEX
999
5,1,,166
  8
1
 10
522.3804
 20
42.1353
  0
VERTEX
999
5,2
  8
1
 10
523.8955
 20
43.8682
  0
VERTEX
999
5,2
  8
1
 10
524.7148
 20
44.9253
  0
VERTEX
999
5,1,,167
  8
1
 10
525.3013
 20
45.8394
  0
SEQEND
  0
POLYLINE
999
5
  8
1
 66
1
 70
0
  0
VERTEX
999
5,1,,168
  8
1
 10
528.3701
 20
44.3999
  0
VERTEX
999
5,1,,169
  8
1
 10
527.5664
 20
43.4688
  0
SEQEND
  0
POLYLINE
999
5
  8
1
 66
1
 70
0
  0
VERTEX
999
5,1,,170
  8
1
 10
527.5664
 20
43.4688
  0
VERTEX
999
5,2
  8
1
 10
526.3711
 20
42.1392
  0
VERTEX
999
5,1,,171
  8
1
 10
523.8618
 20
39.5742
  0
SEQEND
  0
POLYLINE
999
5
  8
1
 66
1
 70
0
  0
VERTEX
999
5,1,,172
  8
1
 10
525.0684
 20
39.6377
  0
VERTEX
999
5,1,,173
  8
1
 10
526.3384
 20
39.7227
  0
SEQEND
  0
LINE
999
5,1,,174
  8
1
 10
526.3384
 20
39.7227
 11
525.5762
 21
40.9502
  0
POLYLINE
999
5
  8
1
 66
1
 70
0
  0
VERTEX
999
5,1,,176
  8
1
 10
528.1797
 20
42.2627
  0
VERTEX
999
5,2
  8
1
 10
530.3511
 20
38.6973
  0
VERTEX
999
5,1,,177
  8
1
 10
531.0586
 20
37.3516
  0
SEQEND
  0
POLYLINE
999
5
  8
1
 66
1
 70
0
  0
VERTEX
999
5,1,,178
  8
1
 10
527.5869
 20
37.3311
  0
VERTEX
999
5,1,,179
  8
1
 10
523.5654
 20
36.9072
  0
SEQEND
  0
LINE
999
5,1,,180
  8
1
 10
523.5654
 20
36.9072
 11
523.1846
 21
36.3145
  0
POLYLINE
999
5
  8
1
 66
1
 70
0
  0
VERTEX
999
5,1,,182
  8
1
 10
525.8306
 20
36.3149
  0
VERTEX
999
5,1,,183
  8
1
 10
527.4814
 20
36.3779
  0
SEQEND
  0
LINE
999
5,1,,184
  8
1
 10
529.1748
 20
34.7275
 11
528.6665
 21
34.0713
  0
POLYLINE
999
5
  8
1
 66
1
 70
0
  0
VERTEX
999
5,1,,186
  8
1
 10
528.6665
 20
34.0713
  0
VERTEX
999
5,1,,187
  8
1
 10
527.5869
 20
32.7803
  0
SEQEND
  0
POLYLINE
999
5
  8
1
 66
1
 70
0
  0
VERTEX
999
5,1,,188
  8
1
 10
527.5869
 20
32.7803
  0
VERTEX
999
5,1,,189
  8
1
 10
526.1270
 20
31.2349
  0
SEQEND
  0
POLYLINE
999
5
  8
1
 66
1
 70
0
  0
VERTEX
999
5,1,,190
  8
1
 10
526.1270
 20
31.2349
  0
VERTEX
999
5,2
  8
1
 10
526.7285
 20
31.0449
  0
VERTEX
999
5,2
  8
1
 10
527.3364
 20
30.8770
  0
VERTEX
999
5,2
  8
1
 10
527.9507
 20
30.7334
  0
VERTEX
999
5,2
  8
1
 10
528.5698
 20
30.6143
  0
VERTEX
999
5,2
  8
1
 10
529.1992
 20
30.5176
  0
VERTEX
999
5,2
  8
1
 10
529.8311
 20
30.4414
  0
VERTEX
999
5,2
  8
1
 10
530.4648
 20
30.3843
  0
VERTEX
999
5,1,,191
  8
1
 10
531.1006
 20
30.3462
  0
SEQEND
  0
POLYLINE
999
5
  8
1
 66
1
 70
0
  0
VERTEX
999
5,1,,192
  8
1
 10
531.1006
 20
30.3457
  0
VERTEX
999
5,2
  8
1
 10
530.7998
 20
29.7642
  0
VERTEX
999
5,2
  8
1
 10
530.5215
 20
29.1709
  0
VERTEX
999
5,2
  8
1
 10
530.2676
 20
28.5674
  0
VERTEX
999
5,2
  8
1
 10
530.0381
 20
27.9536
  0
VERTEX
999
5,1,,193
  8
1
 10
529.7461
 20
27.0654
  0
SEQEND
  0
POLYLINE
999
5
  8
1
 66
1
 70
0
  0
VERTEX
999
5,1,,194
  8
1
 10
529.7461
 20
27.0654
  0
VERTEX
999
5,2
  8
1
 10
529.0454
 20
27.1797
  0
VERTEX
999
5,2
  8
1
 10
528.3491
 20
27.3154
  0
VERTEX
999
5,2
  8
1
 10
527.6577
 20
27.4741
  0
VERTEX
999
5,2
  8
1
 10
526.9717
 20
27.6553
  0
VERTEX
999
5,2
  8
1
 10
526.4312
 20
27.8184
  0
VERTEX
999
5,2
  8
1
 10
525.8965
 20
28.0005
  0
VERTEX
999
5,2
  8
1
 10
525.3691
 20
28.2012
  0
VERTEX
999
5,2
  8
1
 10
524.8486
 20
28.4199
  0
VERTEX
999
5,1,,195
  8
1
 10
523.3330
 20
29.1816
  0
SEQEND
  0
POLYLINE
999
5
  8
1
 66
1
 70
0
  0
VERTEX
999
5,1,,196
  8
1
 10
515.9668
 20
33.7749
  0
VERTEX
999
5,2
  8
1
 10
516.4370
 20
33.9829
  0
VERTEX
999
5,2
  8
1
 10
516.8975
 20
34.2109
  0
VERTEX
999
5,2
  8
1
 10
517.3477
 20
34.4595
  0
VERTEX
999
5,2
  8
1
 10
517.7866
 20
34.7275
  0
VERTEX
999
5,2
  8
1
 10
518.1499
 20
34.9722
  0
VERTEX
999
5,2
  8
1
 10
518.5015
 20
35.2329
  0
VERTEX
999
5,2
  8
1
 10
518.8408
 20
35.5098
  0
VERTEX
999
5,2
  8
1
 10
519.1670
 20
35.8018
  0
VERTEX
999
5,2
  8
1
 10
519.3682
 20
35.9985
  0
VERTEX
999
5,2
  8
1
 10
519.5615
 20
36.2026
  0
VERTEX
999
5,2
  8
1
 10
519.7476
 20
36.4141
  0
VERTEX
999
5,1,,197
  8
1
 10
519.9253
 20
36.6323
  0
SEQEND
  0
LINE
999
5,1,,198
  8
1
 10
516.5811
 20
38.8545
 11
515.9673
 21
38.0078
  0
LINE
999
5,1,,200
  8
1
 10
517.6392
 20
36.4629
 11
516.8135
 21
36.3569
  0
POLYLINE
999
5
  8
1
 66
1
 70
0
  0
VERTEX
999
5,1,,202
  8
1
 10
515.9673
 20
29.8379
  0
VERTEX
999
5,2
  8
1
 10
516.5835
 20
29.9312
  0
VERTEX
999
5,2
  8
1
 10
517.1953
 20
30.0464
  0
VERTEX
999
5,2
  8
1
 10
517.8027
 20
30.1851
  0
VERTEX
999
5,2
  8
1
 10
518.4048
 20
30.3477
  0
VERTEX
999
5,2
  8
1
 10
518.9541
 20
30.5190
  0
VERTEX
999
5,2
  8
1
 10
519.4966
 20
30.7104
  0
VERTEX
999
5,2
  8
1
 10
520.0322
 20
30.9214
  0
VERTEX
999
5,1,,203
  8
1
 10
520.5601
 20
31.1504
  0
SEQEND
  0
POLYLINE
999
5
  8
1
 66
1
 70
0
  0
VERTEX
999
5,1,,204
  8
1
 10
517.2158
 20
31.0020
  0
VERTEX
999
5,2
  8
1
 10
516.9585
 20
31.4878
  0
VERTEX
999
5,2
  8
1
 10
516.6797
 20
31.9609
  0
VERTEX
999
5,2
  8
1
 10
516.3804
 20
32.4219
  0
VERTEX
999
5,2
  8
1
 10
516.0605
 20
32.8691
  0
VERTEX
999
5,1,,205
  8
1
 10
515.9673
 20
32.9917
  0
SEQEND
  0
POLYLINE
999
5
  8
1
 66
1
 70
0
  0
VERTEX
999
5,1,,206
  8
1
 10
519.3750
 20
32.3354
  0
VERTEX
999
5,2
  8
1
 10
518.8975
 20
31.9883
  0
VERTEX
999
5,2
  8
1
 10
518.4053
 20
31.6636
  0
VERTEX
999
5,2
  8
1
 10
517.8984
 20
31.3623
  0
VERTEX
999
5,2
  8
1
 10
517.3779
 20
31.0840
  0
VERTEX
999
5,1,,207
  8
1
 10
517.2158
 20
31.0020
  0
SEQEND
  0
POLYLINE
999
5
  8
1
 66
1
 70
0
  0
VERTEX
999
5,1,,208
  8
1
 10
520.5601
 20
31.1504
  0
VERTEX
999
5,1,,209
  8
1
 10
519.3750
 20
32.3354
  0
SEQEND
  0
POLYLINE
999
5
  8
1
 66
1
 70
0
  0
VERTEX
999
5,1,,210
  8
1
 10
523.2056
 20
32.6533
  0
VERTEX
999
5,1,,211
  8
1
 10
524.6450
 20
33.8384
  0
SEQEND
  0
POLYLINE
999
5
  8
1
 66
1
 70
0
  0
VERTEX
999
5,1,,212
  8
1
 10
521.8301
 20
33.8379
  0
VERTEX
999
5,2
  8
1
 10
522.0854
 20
33.5566
  0
VERTEX
999
5,2
  8
1
 10
522.3589
 20
33.2930
  0
VERTEX
999
5,2
  8
1
 10
522.6489
 20
33.0483
  0
VERTEX
999
5,2
  8
1
 10
522.9551
 20
32.8237
  0
VERTEX
999
5,1,,213
  8
1
 10
523.2056
 20
32.6528
  0
SEQEND
  0
POLYLINE
999
5
  8
1
 66
1
 70
0
  0
VERTEX
999
5,1,,214
  8
1
 10
512.3477
 20
40.6963
  0
VERTEX
999
5,1,,215
  8
1
 10
511.3364
 20
42.7617
  0
SEQEND
  0
POLYLINE
999
5
  8
1
 66
1
 70
0
  0
VERTEX
999
5,1,,216
  8
1
 10
516.6655
 20
44.2520
  0
VERTEX
999
5,2
  8
1
 10
516.2261
 20
43.7773
  0
VERTEX
999
5,2
  8
1
 10
515.7705
 20
43.3188
  0
VERTEX
999
5,2
  8
1
 10
515.2993
 20
42.8765
  0
VERTEX
999
5,2
  8
1
 10
514.8125
 20
42.4502
  0
VERTEX
999
5,2
  8
1
 10
514.3511
 20
42.0723
  0
VERTEX
999
5,2
  8
1
 10
513.8779
 20
41.7090
  0
VERTEX
999
5,2
  8
1
 10
513.3931
 20
41.3618
  0
VERTEX
999
5,2
  8
1
 10
512.8970
 20
41.0313
  0
VERTEX
999
5,1,,217
  8
1
 10
512.3477
 20
40.6963
  0
SEQEND
  0
POLYLINE
999
5
  8
1
 66
1
 70
0
  0
VERTEX
999
5,1,,218
  8
1
 10
511.3364
 20
42.7617
  0
VERTEX
999
5,1,,219
  8
1
 10
510.7817
 20
43.5747
  0
SEQEND
  0
POLYLINE
999
5
  8
1
 66
1
 70
0
  0
VERTEX
999
5,1,,220
  8
1
 10
510.7817
 20
43.5747
  0
VERTEX
999
5,2
  8
1
 10
511.2773
 20
43.8325
  0
VERTEX
999
5,2
  8
1
 10
511.7617
 20
44.1108
  0
VERTEX
999
5,2
  8
1
 10
512.2344
 20
44.4092
  0
VERTEX
999
5,2
  8
1
 10
512.6938
 20
44.7275
  0
VERTEX
999
5,2
  8
1
 10
513.0459
 20
44.9961
  0
VERTEX
999
5,2
  8
1
 10
513.3848
 20
45.2813
  0
VERTEX
999
5,2
  8
1
 10
513.7095
 20
45.5815
  0
VERTEX
999
5,2
  8
1
 10
514.0205
 20
45.8975
  0
VERTEX
999
5,2
  8
1
 10
514.2822
 20
46.1909
  0
VERTEX
999
5,2
  8
1
 10
514.5283
 20
46.4976
  0
VERTEX
999
5,2
  8
1
 10
514.7593
 20
46.8164
  0
VERTEX
999
5,2
  8
1
 10
514.9736
 20
47.1460
  0
VERTEX
999
5,1,,221
  8
1
 10
515.0781
 20
47.3213
  0
SEQEND
  0
POLYLINE
999
5
  8
1
 66
1
 70
0
  0
VERTEX
999
5,1,,222
  8
1
 10
25.7251
 20
41.6060
  0
VERTEX
999
5,2
  8
1
 10
24.6738
 20
41.6938
  0
VERTEX
999
5,1,,223
  8
1
 10
23.3335
 20
41.7119
  0
SEQEND
  0
POLYLINE
999
5
  8
1
 66
1
 70
0
  0
VERTEX
999
5,1,,224
  8
1
 10
9.0044
 20
41.7119
  0
VERTEX
999
5,1,,225
  8
1
 10
6.5918
 20
41.6064
  0
SEQEND
  0
POLYLINE
999
5
  8
1
 66
1
 70
0
  0
VERTEX
999
5,1,,226
  8
1
 10
6.5918
 20
44.7388
  0
VERTEX
999
5,2
  8
1
 10
7.7231
 20
44.6328
  0
VERTEX
999
5,1,,227
  8
1
 10
9.0044
 20
44.6118
  0
SEQEND
  0
POLYLINE
999
5
  8
1
 66
1
 70
0
  0
VERTEX
999
5,1,,228
  8
1
 10
11.1631
 20
44.6118
  0
VERTEX
999
5,1,,229
  8
1
 10
9.9990
 20
46.3052
  0
SEQEND
  0
POLYLINE
999
5
  8
1
 66
1
 70
0
  0
VERTEX
999
5,1,,230
  8
1
 10
13.3223
 20
47.1304
  0
VERTEX
999
5,1,,231
  8
1
 10
14.7910
 20
44.6816
  0
SEQEND
  0
POLYLINE
999
5
  8
1
 66
1
 70
0
  0
VERTEX
999
5,1,,232
  8
1
 10
17.4707
 20
44.6118
  0
VERTEX
999
5,2
  8
1
 10
17.7437
 20
44.9937
  0
VERTEX
999
5,2
  8
1
 10
17.9956
 20
45.3892
  0
VERTEX
999
5,2
  8
1
 10
18.2266
 20
45.7974
  0
VERTEX
999
5,2
  8
1
 10
18.4355
 20
46.2173
  0
VERTEX
999
5,1,,233
  8
1
 10
18.8042
 20
47.0879
  0
SEQEND
  0
POLYLINE
999
5
  8
1
 66
1
 70
0
  0
VERTEX
999
5,1,,234
  8
1
 10
22.2539
 20
46.3052
  0
VERTEX
999
5,1,,235
  8
1
 10
21.1113
 20
44.6118
  0
SEQEND
  0
POLYLINE
999
5
  8
1
 66
1
 70
0
  0
VERTEX
999
5,1,,236
  8
1
 10
23.3335
 20
44.6118
  0
VERTEX
999
5,1,,237
  8
1
 10
25.7251
 20
44.7388
  0
SEQEND
  0
POLYLINE
999
5
  8
1
 66
1
 70
0
  0
VERTEX
999
5,1,,238
  8
1
 10
10.5708
 20
29.4355
  0
VERTEX
999
5,1,,239
  8
1
 10
10.6763
 20
27.1289
  0
SEQEND
  0
POLYLINE
999
5
  8
1
 66
1
 70
0
  0
VERTEX
999
5,1,,240
  8
1
 10
7.3530
 20
27.1289
  0
VERTEX
999
5,1,,241
  8
1
 10
7.4805
 20
29.6689
  0
SEQEND
  0
POLYLINE
999
5
  8
1
 66
1
 70
0
  0
VERTEX
999
5,1,,242
  8
1
 10
7.4805
 20
39.0239
  0
VERTEX
999
5,1,,243
  8
1
 10
7.3955
 20
40.9502
  0
SEQEND
  0
POLYLINE
999
5
  8
1
 66
1
 70
0
  0
VERTEX
999
5,1,,244
  8
1
 10
7.3955
 20
40.9502
  0
VERTEX
999
5,1,,245
  8
1
 10
9.3218
 20
40.8867
  0
SEQEND
  0
POLYLINE
999
5
  8
1
 66
1
 70
0
  0
VERTEX
999
5,1,,246
  8
1
 10
14.3169
 20
40.8867
  0
VERTEX
999
5,1,,247
  8
1
 10
16.1582
 20
40.9502
  0
SEQEND
  0
POLYLINE
999
5
  8
1
 66
1
 70
0
  0
VERTEX
999
5,1,,248
  8
1
 10
16.1582
 20
40.9502
  0
VERTEX
999
5,1,,249
  8
1
 10
16.0947
 20
38.9395
  0
SEQEND
  0
POLYLINE
999
5
  8
1
 66
1
 70
0
  0
VERTEX
999
5,1,,250
  8
1
 10
16.0947
 20
29.7324
  0
VERTEX
999
5,2
  8
1
 10
16.0479
 20
28.9058
  0
VERTEX
999
5,1,,251
  8
1
 10
15.7998
 20
28.0981
  0
SEQEND
  0
POLYLINE
999
5
  8
1
 66
1
 70
0
  0
VERTEX
999
5,1,,252
  8
1
 10
15.7998
 20
28.0981
  0
VERTEX
999
5,1,,253
  8
1
 10
15.0220
 20
27.4805
  0
SEQEND
  0
POLYLINE
999
5
  8
1
 66
1
 70
0
  0
VERTEX
999
5,1,,254
  8
1
 10
15.0220
 20
27.4805
  0
VERTEX
999
5,2
  8
1
 10
14.5859
 20
27.3628
  0
VERTEX
999
5,2
  8
1
 10
13.9639
 20
27.2837
  0
VERTEX
999
5,1,,255
  8
1
 10
13.0894
 20
27.2559
  0
SEQEND
  0
LINE
999
5,1,,256
  8
1
 10
13.0894
 20
27.2559
 11
12.0732
 21
27.2769
  0
POLYLINE
999
5
  8
1
 66
1
 70
0
  0
VERTEX
999
5,1,,258
  8
1
 10
12.0732
 20
27.2769
  0
VERTEX
999
5,1,,259
  8
1
 10
11.8003
 20
28.7563
  0
SEQEND
  0
POLYLINE
999
5
  8
1
 66
1
 70
0
  0
VERTEX
999
5,1,,260
  8
1
 10
11.8003
 20
28.7563
  0
VERTEX
999
5,1,,261
  8
1
 10
11.3750
 20
30.0498
  0
SEQEND
  0
POLYLINE
999
5
  8
1
 66
1
 70
0
  0
VERTEX
999
5,1,,262
  8
1
 10
11.3750
 20
30.0498
  0
VERTEX
999
5,1,,263
  8
1
 10
12.5601
 20
29.9648
  0
SEQEND
  0
LINE
999
5,1,,264
  8
1
 10
12.5601
 20
29.9648
 11
12.8750
 21
30.0107
  0
LINE
999
5,1,,266
  8
1
 10
12.8750
 20
30.0107
 11
12.9746
 21
30.1025
  0
LINE
999
5,1,,268
  8
1
 10
12.9746
 20
30.1025
 11
13.0195
 21
30.2666
  0
LINE
999
5,1,,270
  8
1
 10
13.0195
 20
30.2666
 11
13.0259
 21
30.4097
  0
POLYLINE
999
5
  8
1
 66
1
 70
0
  0
VERTEX
999
5,1,,272
  8
1
 10
17.2588
 20
31.4893
  0
VERTEX
999
5,1,,273
  8
1
 10
17.3438
 20
33.6265
  0
SEQEND
  0
POLYLINE
999
5
  8
1
 66
1
 70
0
  0
VERTEX
999
5,1,,274
  8
1
 10
17.3438
 20
38.4526
  0
VERTEX
999
5,1,,275
  8
1
 10
17.2588
 20
40.4634
  0
SEQEND
  0
POLYLINE
999
5
  8
1
 66
1
 70
0
  0
VERTEX
999
5,1,,276
  8
1
 10
20.4976
 20
40.4634
  0
VERTEX
999
5,1,,277
  8
1
 10
20.4126
 20
38.4312
  0
SEQEND
  0
POLYLINE
999
5
  8
1
 66
1
 70
0
  0
VERTEX
999
5,1,,278
  8
1
 10
20.4126
 20
33.6689
  0
VERTEX
999
5,1,,279
  8
1
 10
20.4976
 20
31.4893
  0
SEQEND
  0
LINE
999
5,1,,280
  8
1
 10
20.9204
 20
27.2344
 11
19.1641
 21
27.2559
  0
POLYLINE
999
5
  8
1
 66
1
 70
0
  0
VERTEX
999
5,1,,282
  8
1
 10
22.8154
 20
27.3198
  0
VERTEX
999
5,2
  8
1
 10
22.0459
 20
27.2554
  0
VERTEX
999
5,1,,283
  8
1
 10
20.9209
 20
27.2344
  0
SEQEND
  0
POLYLINE
999
5
  8
1
 66
1
 70
0
  0
VERTEX
999
5,1,,284
  8
1
 10
19.1641
 20
27.2559
  0
VERTEX
999
5,2
  8
1
 10
19.0708
 20
27.7964
  0
VERTEX
999
5,2
  8
1
 10
18.9526
 20
28.3315
  0
VERTEX
999
5,2
  8
1
 10
18.8091
 20
28.8599
  0
VERTEX
999
5,2
  8
1
 10
18.6387
 20
29.3809
  0
VERTEX
999
5,1,,285
  8
1
 10
18.2749
 20
30.3037
  0
SEQEND
  0
POLYLINE
999
5
  8
1
 66
1
 70
0
  0
VERTEX
999
5,1,,286
  8
1
 10
18.2749
 20
30.3037
  0
VERTEX
999
5,1,,287
  8
1
 10
20.8149
 20
30.1553
  0
SEQEND
  0
POLYLINE
999
5
  8
1
 66
1
 70
0
  0
VERTEX
999
5,1,,288
  8
1
 10
20.8149
 20
30.1553
  0
VERTEX
999
5,1,,289
  8
1
 10
21.3745
 20
30.2017
  0
SEQEND
  0
POLYLINE
999
5
  8
1
 66
1
 70
0
  0
VERTEX
999
5,1,,290
  8
1
 10
21.3745
 20
30.2017
  0
VERTEX
999
5,1,,291
  8
1
 10
21.6587
 20
30.6367
  0
SEQEND
  0
LINE
999
5,1,,292
  8
1
 10
21.6587
 20
30.6367
 11
21.6616
 21
30.7480
  0
POLYLINE
999
5
  8
1
 66
1
 70
0
  0
VERTEX
999
5,1,,294
  8
1
 10
21.6616
 20
38.8760
  0
VERTEX
999
5,1,,295
  8
1
 10
21.5767
 20
40.9922
  0
SEQEND
  0
POLYLINE
999
5
  8
1
 66
1
 70
0
  0
VERTEX
999
5,1,,296
  8
1
 10
24.9214
 20
40.9922
  0
VERTEX
999
5,2
  8
1
 10
24.8306
 20
39.8789
  0
VERTEX
999
5,1,,297
  8
1
 10
24.8149
 20
38.7910
  0
SEQEND
  0
POLYLINE
999
5
  8
1
 66
1
 70
0
  0
VERTEX
999
5,1,,298
  8
1
 10
24.8149
 20
30.1553
  0
VERTEX
999
5,2
  8
1
 10
24.7666
 20
29.1631
  0
VERTEX
999
5,1,,299
  8
1
 10
24.5127
 20
28.2710
  0
SEQEND
  0
POLYLINE
999
5
  8
1
 66
1
 70
0
  0
VERTEX
999
5,1,,300
  8
1
 10
24.5127
 20
28.2710
  0
VERTEX
999
5,1,,301
  8
1
 10
24.1592
 20
27.8486
  0
SEQEND
  0
POLYLINE
999
5
  8
1
 66
1
 70
0
  0
VERTEX
999
5,1,,302
  8
1
 10
24.1592
 20
27.8486
  0
VERTEX
999
5,1,,303
  8
1
 10
22.8154
 20
27.3198
  0
SEQEND
  0
ENDBLK
  0
ENDSEC
  0
SECTION
  2
ENTITIES
  0
TEXT
  8
1
 10
0.0000
 20
50.0000
 40
5.0000
  1
DESIGN: FOPー58
  7
STANDARD
  0
TEXT
  8
1
 10
0.0000
 20
44.0000
 40
5.0000
  1
DATE: 2020/05/06 10:55
  7
STANDARD
  0
TEXT
  8
1
 10
0.0000
 20
38.0000
 40
5.0000
  1
AUTHOR: TORAY A.C.S  CREACOMPO
  7
STANDARD
  0
TEXT
  8
1
 10
0.0000
 20
32.0000
 40
5.0000
  1
MASTER SIZE: M
  7
STANDARD
  0
TEXT
  8
1
 10
0.0000
 20
26.0000
 40
5.0000
  1
UNITS: METRIC
  7
STANDARD
  0
TEXT
  8
1
 10
0.0000
 20
20.0000
 40
5.0000
  1
VERSION: 2.00
  7
STANDARD
  0
INSERT
  8
1
  2
P0001_05
 10
791.9468
 20
30.0000
  0
INSERT
  8
1
  2
P0002_05
 10
30.0000
 20
30.0000
  0
INSERT
  8
1
  2
P0003_05
 10
306.0874
 20
902.6250
  0
INSERT
  8
1
  2
P0004_05
 10
355.2397
 20
840.7168
  0
ENDSEC
  0
EOF
